  0
SECTION
  2
HEADER
  9
$ANGBASE
  50
0.0
  9
$ANGDIR
  70
1
  9
$MEASUREMENT
  70
1
  0
ENDSEC
  0
SECTION
  2
TABLES
  0
TABLE
  2
LTYPE
  70
4
  0
LTYPE
  5
40F
  2
CONTINUOUS
  70
0
  3
Solid line
  72
65
  73
0
  40
0.0
  0
LTYPE
  5
410
  2
DASHDOT
 70
0
  3
Dash Dot ____ _ ____ _
 72
65
 73
4
 40
2.0
 49
1.25
 49
-0.25
 49
0.25
 49
-0.25
  0
LTYPE
  5
411
  2
DASHED
 70
0
  3
Dashed __ __ __ __ __
 72
65
 73
2
 40
0.75
 49
0.5
 49
-0.25
  0
LTYPE
  5
43B
  2
DOTTED
 70
0
  3
Dotted .  .  .  .
 72
65
 73
2
 40
0.2
 49
0.0
 49
-0.2
  0
ENDTAB
  0
TABLE
  2
STYLE
  70
4
  0
STYLE
  2
KICAD
  70
0
  40
0
  41
1
  42
1
  50
0
  71
0
  3
isocp.shx
  0
STYLE
  2
KICADB
  70
0
  40
0
  41
1
  42
1
  50
0
  71
0
  3
isocp.shx
  0
STYLE
  2
KICADI
  70
0
  40
0
  41
1
  42
1
  50
15
  71
0
  3
isocp.shx
  0
STYLE
  2
KICADBI
  70
0
  40
0
  41
1
  42
1
  50
15
  71
0
  3
isocp.shx
  0
ENDTAB
  0
TABLE
  2
LAYER
  70
1
  0
LAYER
  2
BLACK
  70
0
  62
7
  6
CONTINUOUS
  0
ENDTAB
  0
ENDSEC
  0
SECTION
  2
ENTITIES
0
LINE
8
BLACK
6
CONTINUOUS
10
68.58
20
-118.11
11
68.58
21
-26.67
0
LINE
8
BLACK
6
CONTINUOUS
10
175.26
20
-118.11
11
68.58
21
-118.11
0
LINE
8
BLACK
6
CONTINUOUS
10
175.26
20
-26.67
11
175.26
21
-118.11
0
LINE
8
BLACK
6
CONTINUOUS
10
68.58
20
-26.67
11
175.26
21
-26.67
0
LINE
8
BLACK
6
CONTINUOUS
10
110.29
20
-35.36
11
110.69
21
-35.76
0
LINE
8
BLACK
6
CONTINUOUS
10
110.69
20
-35.36
11
110.29
21
-35.76
0
LINE
8
BLACK
6
CONTINUOUS
10
116.005
20
-31.55
11
116.405
21
-31.95
0
LINE
8
BLACK
6
CONTINUOUS
10
116.405
20
-31.55
11
116.005
21
-31.95
0
LINE
8
BLACK
6
CONTINUOUS
10
116.64
20
-74.095
11
117.04
21
-74.495
0
LINE
8
BLACK
6
CONTINUOUS
10
117.04
20
-74.095
11
116.64
21
-74.495
0
LINE
8
BLACK
6
CONTINUOUS
10
124.294
20
-34.691
11
124.694
21
-35.091
0
LINE
8
BLACK
6
CONTINUOUS
10
124.694
20
-34.691
11
124.294
21
-35.091
0
LINE
8
BLACK
6
CONTINUOUS
10
130.61
20
-71.555
11
131.01
21
-71.955
0
LINE
8
BLACK
6
CONTINUOUS
10
131.01
20
-71.555
11
130.61
21
-71.955
0
LINE
8
BLACK
6
CONTINUOUS
10
131.88
20
-60.125
11
132.28
21
-60.525
0
LINE
8
BLACK
6
CONTINUOUS
10
132.28
20
-60.125
11
131.88
21
-60.525
0
LINE
8
BLACK
6
CONTINUOUS
10
133.785
20
-60.125
11
134.185
21
-60.525
0
LINE
8
BLACK
6
CONTINUOUS
10
134.185
20
-60.125
11
133.785
21
-60.525
0
LINE
8
BLACK
6
CONTINUOUS
10
133.785
20
-71.555
11
134.185
21
-71.955
0
LINE
8
BLACK
6
CONTINUOUS
10
134.185
20
-71.555
11
133.785
21
-71.955
0
LINE
8
BLACK
6
CONTINUOUS
10
144.58
20
-50.6
11
144.98
21
-51
0
LINE
8
BLACK
6
CONTINUOUS
10
144.98
20
-50.6
11
144.58
21
-51
0
LINE
8
BLACK
6
CONTINUOUS
10
144.58
20
-68.38
11
144.98
21
-68.78
0
LINE
8
BLACK
6
CONTINUOUS
10
144.98
20
-68.38
11
144.58
21
-68.78
0
LINE
8
BLACK
6
CONTINUOUS
10
145.85
20
-44.25
11
146.25
21
-44.65
0
LINE
8
BLACK
6
CONTINUOUS
10
146.25
20
-44.25
11
145.85
21
-44.65
0
LINE
8
BLACK
6
CONTINUOUS
10
145.85
20
-77.905
11
146.25
21
-78.305
0
LINE
8
BLACK
6
CONTINUOUS
10
146.25
20
-77.905
11
145.85
21
-78.305
0
CIRCLE
8
BLACK
10
120.65
20
-108.585
40
0.375
0
CIRCLE
8
BLACK
10
120.65
20
-109.855
40
0.375
0
CIRCLE
8
BLACK
10
120.65
20
-111.125
40
0.375
0
CIRCLE
8
BLACK
10
76.2
20
-71.755
40
0.375
0
CIRCLE
8
BLACK
10
76.2
20
-73.025
40
0.375
0
CIRCLE
8
BLACK
10
76.2
20
-74.295
40
0.375
0
CIRCLE
8
BLACK
10
128.905
20
-31.75
40
0.375
0
CIRCLE
8
BLACK
10
130.175
20
-31.75
40
0.375
0
CIRCLE
8
BLACK
10
131.445
20
-31.75
40
0.375
0
CIRCLE
8
BLACK
10
100.33
20
-88.9
40
0.375
0
CIRCLE
8
BLACK
10
101.6
20
-88.9
40
0.375
0
CIRCLE
8
BLACK
10
102.87
20
-88.9
40
0.375
0
CIRCLE
8
BLACK
10
150.495
20
-112.395
40
0.375
0
CIRCLE
8
BLACK
10
150.495
20
-113.665
40
0.375
0
CIRCLE
8
BLACK
10
150.495
20
-114.935
40
0.375
0
LINE
8
BLACK
6
CONTINUOUS
10
90.3524
20
-30.08
11
90.3524
21
-30.88
0
LINE
8
BLACK
6
CONTINUOUS
10
89.9524
20
-30.48
11
90.7524
21
-30.48
0
LINE
8
BLACK
6
CONTINUOUS
10
107.95
20
-40.24
11
107.95
21
-41.04
0
LINE
8
BLACK
6
CONTINUOUS
10
107.55
20
-40.64
11
108.35
21
-40.64
0
LINE
8
BLACK
6
CONTINUOUS
10
126.365
20
-109.455
11
126.365
21
-110.255
0
LINE
8
BLACK
6
CONTINUOUS
10
125.965
20
-109.855
11
126.765
21
-109.855
0
LINE
8
BLACK
6
CONTINUOUS
10
146.685
20
-109.455
11
146.685
21
-110.255
0
LINE
8
BLACK
6
CONTINUOUS
10
146.285
20
-109.855
11
147.085
21
-109.855
0
LINE
8
BLACK
6
CONTINUOUS
10
80.01
20
-110.09
11
80.01
21
-110.89
0
LINE
8
BLACK
6
CONTINUOUS
10
79.61
20
-110.49
11
80.41
21
-110.49
0
LINE
8
BLACK
6
CONTINUOUS
10
100.33
20
-110.09
11
100.33
21
-110.89
0
LINE
8
BLACK
6
CONTINUOUS
10
99.93
20
-110.49
11
100.73
21
-110.49
0
LINE
8
BLACK
6
CONTINUOUS
10
87.63
20
-52.94
11
87.63
21
-53.74
0
LINE
8
BLACK
6
CONTINUOUS
10
87.23
20
-53.34
11
88.03
21
-53.34
0
LINE
8
BLACK
6
CONTINUOUS
10
107.95
20
-52.94
11
107.95
21
-53.74
0
LINE
8
BLACK
6
CONTINUOUS
10
107.55
20
-53.34
11
108.35
21
-53.34
0
LINE
8
BLACK
6
CONTINUOUS
10
80.01
20
-106.28
11
80.01
21
-107.08
0
LINE
8
BLACK
6
CONTINUOUS
10
79.61
20
-106.68
11
80.41
21
-106.68
0
LINE
8
BLACK
6
CONTINUOUS
10
100.33
20
-106.28
11
100.33
21
-107.08
0
LINE
8
BLACK
6
CONTINUOUS
10
99.93
20
-106.68
11
100.73
21
-106.68
0
LINE
8
BLACK
6
CONTINUOUS
10
90.17
20
-49.13
11
90.17
21
-49.93
0
LINE
8
BLACK
6
CONTINUOUS
10
89.77
20
-49.53
11
90.57
21
-49.53
0
LINE
8
BLACK
6
CONTINUOUS
10
110.49
20
-49.13
11
110.49
21
-49.93
0
LINE
8
BLACK
6
CONTINUOUS
10
110.09
20
-49.53
11
110.89
21
-49.53
0
LINE
8
BLACK
6
CONTINUOUS
10
80.01
20
-64.37
11
80.01
21
-65.17
0
LINE
8
BLACK
6
CONTINUOUS
10
79.61
20
-64.77
11
80.41
21
-64.77
0
LINE
8
BLACK
6
CONTINUOUS
10
100.33
20
-64.37
11
100.33
21
-65.17
0
LINE
8
BLACK
6
CONTINUOUS
10
99.93
20
-64.77
11
100.73
21
-64.77
0
LINE
8
BLACK
6
CONTINUOUS
10
80.01
20
-98.66
11
80.01
21
-99.46
0
LINE
8
BLACK
6
CONTINUOUS
10
79.61
20
-99.06
11
80.41
21
-99.06
0
LINE
8
BLACK
6
CONTINUOUS
10
100.33
20
-98.66
11
100.33
21
-99.46
0
LINE
8
BLACK
6
CONTINUOUS
10
99.93
20
-99.06
11
100.73
21
-99.06
0
LINE
8
BLACK
6
CONTINUOUS
10
139.065
20
-89.77
11
139.065
21
-90.57
0
LINE
8
BLACK
6
CONTINUOUS
10
138.665
20
-90.17
11
139.465
21
-90.17
0
LINE
8
BLACK
6
CONTINUOUS
10
159.385
20
-89.77
11
159.385
21
-90.57
0
LINE
8
BLACK
6
CONTINUOUS
10
158.985
20
-90.17
11
159.785
21
-90.17
0
LINE
8
BLACK
6
CONTINUOUS
10
80.01
20
-102.47
11
80.01
21
-103.27
0
LINE
8
BLACK
6
CONTINUOUS
10
79.61
20
-102.87
11
80.41
21
-102.87
0
LINE
8
BLACK
6
CONTINUOUS
10
100.33
20
-102.47
11
100.33
21
-103.27
0
LINE
8
BLACK
6
CONTINUOUS
10
99.93
20
-102.87
11
100.73
21
-102.87
0
LINE
8
BLACK
6
CONTINUOUS
10
130.81
20
-82.15
11
130.81
21
-82.95
0
LINE
8
BLACK
6
CONTINUOUS
10
130.41
20
-82.55
11
131.21
21
-82.55
0
LINE
8
BLACK
6
CONTINUOUS
10
130.81
20
-102.47
11
130.81
21
-103.27
0
LINE
8
BLACK
6
CONTINUOUS
10
130.41
20
-102.87
11
131.21
21
-102.87
0
LINE
8
BLACK
6
CONTINUOUS
10
126.365
20
-113.265
11
126.365
21
-114.065
0
LINE
8
BLACK
6
CONTINUOUS
10
125.965
20
-113.665
11
126.765
21
-113.665
0
LINE
8
BLACK
6
CONTINUOUS
10
146.685
20
-113.265
11
146.685
21
-114.065
0
LINE
8
BLACK
6
CONTINUOUS
10
146.285
20
-113.665
11
147.085
21
-113.665
0
LINE
8
BLACK
6
CONTINUOUS
10
127
20
-82.15
11
127
21
-82.95
0
LINE
8
BLACK
6
CONTINUOUS
10
126.6
20
-82.55
11
127.4
21
-82.55
0
LINE
8
BLACK
6
CONTINUOUS
10
127
20
-102.47
11
127
21
-103.27
0
LINE
8
BLACK
6
CONTINUOUS
10
126.6
20
-102.87
11
127.4
21
-102.87
0
LINE
8
BLACK
6
CONTINUOUS
10
118.11
20
-82.15
11
118.11
21
-82.95
0
LINE
8
BLACK
6
CONTINUOUS
10
117.71
20
-82.55
11
118.51
21
-82.55
0
LINE
8
BLACK
6
CONTINUOUS
10
118.11
20
-102.47
11
118.11
21
-103.27
0
LINE
8
BLACK
6
CONTINUOUS
10
117.71
20
-102.87
11
118.51
21
-102.87
0
LINE
8
BLACK
6
CONTINUOUS
10
80.01
20
-60.56
11
80.01
21
-61.36
0
LINE
8
BLACK
6
CONTINUOUS
10
79.61
20
-60.96
11
80.41
21
-60.96
0
LINE
8
BLACK
6
CONTINUOUS
10
100.33
20
-60.56
11
100.33
21
-61.36
0
LINE
8
BLACK
6
CONTINUOUS
10
99.93
20
-60.96
11
100.73
21
-60.96
0
LINE
8
BLACK
6
CONTINUOUS
10
134.62
20
-82.15
11
134.62
21
-82.95
0
LINE
8
BLACK
6
CONTINUOUS
10
134.22
20
-82.55
11
135.02
21
-82.55
0
LINE
8
BLACK
6
CONTINUOUS
10
134.62
20
-102.47
11
134.62
21
-103.27
0
LINE
8
BLACK
6
CONTINUOUS
10
134.22
20
-102.87
11
135.02
21
-102.87
0
LINE
8
BLACK
6
CONTINUOUS
10
80.01
20
-83.42
11
80.01
21
-84.22
0
LINE
8
BLACK
6
CONTINUOUS
10
79.61
20
-83.82
11
80.41
21
-83.82
0
LINE
8
BLACK
6
CONTINUOUS
10
100.33
20
-83.42
11
100.33
21
-84.22
0
LINE
8
BLACK
6
CONTINUOUS
10
99.93
20
-83.82
11
100.73
21
-83.82
0
LINE
8
BLACK
6
CONTINUOUS
10
80.01
20
-68.18
11
80.01
21
-68.98
0
LINE
8
BLACK
6
CONTINUOUS
10
79.61
20
-68.58
11
80.41
21
-68.58
0
LINE
8
BLACK
6
CONTINUOUS
10
100.33
20
-68.18
11
100.33
21
-68.98
0
LINE
8
BLACK
6
CONTINUOUS
10
99.93
20
-68.58
11
100.73
21
-68.58
0
LINE
8
BLACK
6
CONTINUOUS
10
80.01
20
-75.8
11
80.01
21
-76.6
0
LINE
8
BLACK
6
CONTINUOUS
10
79.61
20
-76.2
11
80.41
21
-76.2
0
LINE
8
BLACK
6
CONTINUOUS
10
100.33
20
-75.8
11
100.33
21
-76.6
0
LINE
8
BLACK
6
CONTINUOUS
10
99.93
20
-76.2
11
100.73
21
-76.2
0
LINE
8
BLACK
6
CONTINUOUS
10
80.01
20
-113.9
11
80.01
21
-114.7
0
LINE
8
BLACK
6
CONTINUOUS
10
79.61
20
-114.3
11
80.41
21
-114.3
0
LINE
8
BLACK
6
CONTINUOUS
10
100.33
20
-113.9
11
100.33
21
-114.7
0
LINE
8
BLACK
6
CONTINUOUS
10
99.93
20
-114.3
11
100.73
21
-114.3
0
LINE
8
BLACK
6
CONTINUOUS
10
107.315
20
-35.16
11
107.315
21
-35.96
0
LINE
8
BLACK
6
CONTINUOUS
10
106.915
20
-35.56
11
107.715
21
-35.56
0
LINE
8
BLACK
6
CONTINUOUS
10
127.635
20
-35.16
11
127.635
21
-35.96
0
LINE
8
BLACK
6
CONTINUOUS
10
127.235
20
-35.56
11
128.035
21
-35.56
0
LINE
8
BLACK
6
CONTINUOUS
10
80.01
20
-56.75
11
80.01
21
-57.55
0
LINE
8
BLACK
6
CONTINUOUS
10
79.61
20
-57.15
11
80.41
21
-57.15
0
LINE
8
BLACK
6
CONTINUOUS
10
100.33
20
-56.75
11
100.33
21
-57.55
0
LINE
8
BLACK
6
CONTINUOUS
10
99.93
20
-57.15
11
100.73
21
-57.15
0
LINE
8
BLACK
6
CONTINUOUS
10
80.01
20
-94.85
11
80.01
21
-95.65
0
LINE
8
BLACK
6
CONTINUOUS
10
79.61
20
-95.25
11
80.41
21
-95.25
0
LINE
8
BLACK
6
CONTINUOUS
10
100.33
20
-94.85
11
100.33
21
-95.65
0
LINE
8
BLACK
6
CONTINUOUS
10
99.93
20
-95.25
11
100.73
21
-95.25
0
LINE
8
BLACK
6
CONTINUOUS
10
80.01
20
-79.61
11
80.01
21
-80.41
0
LINE
8
BLACK
6
CONTINUOUS
10
79.61
20
-80.01
11
80.41
21
-80.01
0
LINE
8
BLACK
6
CONTINUOUS
10
100.33
20
-79.61
11
100.33
21
-80.41
0
LINE
8
BLACK
6
CONTINUOUS
10
99.93
20
-80.01
11
100.73
21
-80.01
0
LINE
8
BLACK
6
CONTINUOUS
10
80.01
20
-71.99
11
80.01
21
-72.79
0
LINE
8
BLACK
6
CONTINUOUS
10
79.61
20
-72.39
11
80.41
21
-72.39
0
LINE
8
BLACK
6
CONTINUOUS
10
100.33
20
-71.99
11
100.33
21
-72.79
0
LINE
8
BLACK
6
CONTINUOUS
10
99.93
20
-72.39
11
100.73
21
-72.39
0
LINE
8
BLACK
6
CONTINUOUS
10
90.17
20
-44.05
11
90.17
21
-44.85
0
LINE
8
BLACK
6
CONTINUOUS
10
89.77
20
-44.45
11
90.57
21
-44.45
0
LINE
8
BLACK
6
CONTINUOUS
10
110.49
20
-44.05
11
110.49
21
-44.85
0
LINE
8
BLACK
6
CONTINUOUS
10
110.09
20
-44.45
11
110.89
21
-44.45
0
LINE
8
BLACK
6
CONTINUOUS
10
120.369
20
-32.1036
11
120.369
21
-31.3964
0
LINE
8
BLACK
6
CONTINUOUS
10
120.369
20
-31.3964
11
119.661
21
-31.3964
0
LINE
8
BLACK
6
CONTINUOUS
10
119.661
20
-31.3964
11
119.661
21
-32.1036
0
LINE
8
BLACK
6
CONTINUOUS
10
119.661
20
-32.1036
11
120.369
21
-32.1036
0
LINE
8
BLACK
6
CONTINUOUS
10
122.909
20
-32.1036
11
122.909
21
-31.3964
0
LINE
8
BLACK
6
CONTINUOUS
10
122.909
20
-31.3964
11
122.201
21
-31.3964
0
LINE
8
BLACK
6
CONTINUOUS
10
122.201
20
-31.3964
11
122.201
21
-32.1036
0
LINE
8
BLACK
6
CONTINUOUS
10
122.201
20
-32.1036
11
122.909
21
-32.1036
0
LINE
8
BLACK
6
CONTINUOUS
10
125.449
20
-32.1036
11
125.449
21
-31.3964
0
LINE
8
BLACK
6
CONTINUOUS
10
125.449
20
-31.3964
11
124.741
21
-31.3964
0
LINE
8
BLACK
6
CONTINUOUS
10
124.741
20
-31.3964
11
124.741
21
-32.1036
0
LINE
8
BLACK
6
CONTINUOUS
10
124.741
20
-32.1036
11
125.449
21
-32.1036
0
LINE
8
BLACK
6
CONTINUOUS
10
114.654
20
-39.7236
11
114.654
21
-39.0164
0
LINE
8
BLACK
6
CONTINUOUS
10
114.654
20
-39.0164
11
113.946
21
-39.0164
0
LINE
8
BLACK
6
CONTINUOUS
10
113.946
20
-39.0164
11
113.946
21
-39.7236
0
LINE
8
BLACK
6
CONTINUOUS
10
113.946
20
-39.7236
11
114.654
21
-39.7236
0
LINE
8
BLACK
6
CONTINUOUS
10
114.654
20
-42.2636
11
114.654
21
-41.5564
0
LINE
8
BLACK
6
CONTINUOUS
10
114.654
20
-41.5564
11
113.946
21
-41.5564
0
LINE
8
BLACK
6
CONTINUOUS
10
113.946
20
-41.5564
11
113.946
21
-42.2636
0
LINE
8
BLACK
6
CONTINUOUS
10
113.946
20
-42.2636
11
114.654
21
-42.2636
0
LINE
8
BLACK
6
CONTINUOUS
10
114.654
20
-44.8036
11
114.654
21
-44.0964
0
LINE
8
BLACK
6
CONTINUOUS
10
114.654
20
-44.0964
11
113.946
21
-44.0964
0
LINE
8
BLACK
6
CONTINUOUS
10
113.946
20
-44.0964
11
113.946
21
-44.8036
0
LINE
8
BLACK
6
CONTINUOUS
10
113.946
20
-44.8036
11
114.654
21
-44.8036
0
LINE
8
BLACK
6
CONTINUOUS
10
114.654
20
-47.3436
11
114.654
21
-46.6364
0
LINE
8
BLACK
6
CONTINUOUS
10
114.654
20
-46.6364
11
113.946
21
-46.6364
0
LINE
8
BLACK
6
CONTINUOUS
10
113.946
20
-46.6364
11
113.946
21
-47.3436
0
LINE
8
BLACK
6
CONTINUOUS
10
113.946
20
-47.3436
11
114.654
21
-47.3436
0
LINE
8
BLACK
6
CONTINUOUS
10
114.654
20
-49.8836
11
114.654
21
-49.1764
0
LINE
8
BLACK
6
CONTINUOUS
10
114.654
20
-49.1764
11
113.946
21
-49.1764
0
LINE
8
BLACK
6
CONTINUOUS
10
113.946
20
-49.1764
11
113.946
21
-49.8836
0
LINE
8
BLACK
6
CONTINUOUS
10
113.946
20
-49.8836
11
114.654
21
-49.8836
0
LINE
8
BLACK
6
CONTINUOUS
10
114.654
20
-52.4236
11
114.654
21
-51.7164
0
LINE
8
BLACK
6
CONTINUOUS
10
114.654
20
-51.7164
11
113.946
21
-51.7164
0
LINE
8
BLACK
6
CONTINUOUS
10
113.946
20
-51.7164
11
113.946
21
-52.4236
0
LINE
8
BLACK
6
CONTINUOUS
10
113.946
20
-52.4236
11
114.654
21
-52.4236
0
LINE
8
BLACK
6
CONTINUOUS
10
114.654
20
-54.9636
11
114.654
21
-54.2564
0
LINE
8
BLACK
6
CONTINUOUS
10
114.654
20
-54.2564
11
113.946
21
-54.2564
0
LINE
8
BLACK
6
CONTINUOUS
10
113.946
20
-54.2564
11
113.946
21
-54.9636
0
LINE
8
BLACK
6
CONTINUOUS
10
113.946
20
-54.9636
11
114.654
21
-54.9636
0
LINE
8
BLACK
6
CONTINUOUS
10
114.654
20
-57.5036
11
114.654
21
-56.7964
0
LINE
8
BLACK
6
CONTINUOUS
10
114.654
20
-56.7964
11
113.946
21
-56.7964
0
LINE
8
BLACK
6
CONTINUOUS
10
113.946
20
-56.7964
11
113.946
21
-57.5036
0
LINE
8
BLACK
6
CONTINUOUS
10
113.946
20
-57.5036
11
114.654
21
-57.5036
0
LINE
8
BLACK
6
CONTINUOUS
10
114.654
20
-60.0436
11
114.654
21
-59.3364
0
LINE
8
BLACK
6
CONTINUOUS
10
114.654
20
-59.3364
11
113.946
21
-59.3364
0
LINE
8
BLACK
6
CONTINUOUS
10
113.946
20
-59.3364
11
113.946
21
-60.0436
0
LINE
8
BLACK
6
CONTINUOUS
10
113.946
20
-60.0436
11
114.654
21
-60.0436
0
LINE
8
BLACK
6
CONTINUOUS
10
114.654
20
-62.5836
11
114.654
21
-61.8764
0
LINE
8
BLACK
6
CONTINUOUS
10
114.654
20
-61.8764
11
113.946
21
-61.8764
0
LINE
8
BLACK
6
CONTINUOUS
10
113.946
20
-61.8764
11
113.946
21
-62.5836
0
LINE
8
BLACK
6
CONTINUOUS
10
113.946
20
-62.5836
11
114.654
21
-62.5836
0
LINE
8
BLACK
6
CONTINUOUS
10
114.654
20
-65.1236
11
114.654
21
-64.4164
0
LINE
8
BLACK
6
CONTINUOUS
10
114.654
20
-64.4164
11
113.946
21
-64.4164
0
LINE
8
BLACK
6
CONTINUOUS
10
113.946
20
-64.4164
11
113.946
21
-65.1236
0
LINE
8
BLACK
6
CONTINUOUS
10
113.946
20
-65.1236
11
114.654
21
-65.1236
0
LINE
8
BLACK
6
CONTINUOUS
10
114.654
20
-67.6636
11
114.654
21
-66.9564
0
LINE
8
BLACK
6
CONTINUOUS
10
114.654
20
-66.9564
11
113.946
21
-66.9564
0
LINE
8
BLACK
6
CONTINUOUS
10
113.946
20
-66.9564
11
113.946
21
-67.6636
0
LINE
8
BLACK
6
CONTINUOUS
10
113.946
20
-67.6636
11
114.654
21
-67.6636
0
LINE
8
BLACK
6
CONTINUOUS
10
114.654
20
-70.2036
11
114.654
21
-69.4964
0
LINE
8
BLACK
6
CONTINUOUS
10
114.654
20
-69.4964
11
113.946
21
-69.4964
0
LINE
8
BLACK
6
CONTINUOUS
10
113.946
20
-69.4964
11
113.946
21
-70.2036
0
LINE
8
BLACK
6
CONTINUOUS
10
113.946
20
-70.2036
11
114.654
21
-70.2036
0
LINE
8
BLACK
6
CONTINUOUS
10
114.654
20
-72.7436
11
114.654
21
-72.0364
0
LINE
8
BLACK
6
CONTINUOUS
10
114.654
20
-72.0364
11
113.946
21
-72.0364
0
LINE
8
BLACK
6
CONTINUOUS
10
113.946
20
-72.0364
11
113.946
21
-72.7436
0
LINE
8
BLACK
6
CONTINUOUS
10
113.946
20
-72.7436
11
114.654
21
-72.7436
0
LINE
8
BLACK
6
CONTINUOUS
10
114.654
20
-75.2836
11
114.654
21
-74.5764
0
LINE
8
BLACK
6
CONTINUOUS
10
114.654
20
-74.5764
11
113.946
21
-74.5764
0
LINE
8
BLACK
6
CONTINUOUS
10
113.946
20
-74.5764
11
113.946
21
-75.2836
0
LINE
8
BLACK
6
CONTINUOUS
10
113.946
20
-75.2836
11
114.654
21
-75.2836
0
LINE
8
BLACK
6
CONTINUOUS
10
114.654
20
-77.8236
11
114.654
21
-77.1164
0
LINE
8
BLACK
6
CONTINUOUS
10
114.654
20
-77.1164
11
113.946
21
-77.1164
0
LINE
8
BLACK
6
CONTINUOUS
10
113.946
20
-77.1164
11
113.946
21
-77.8236
0
LINE
8
BLACK
6
CONTINUOUS
10
113.946
20
-77.8236
11
114.654
21
-77.8236
0
LINE
8
BLACK
6
CONTINUOUS
10
114.654
20
-80.3636
11
114.654
21
-79.6564
0
LINE
8
BLACK
6
CONTINUOUS
10
114.654
20
-79.6564
11
113.946
21
-79.6564
0
LINE
8
BLACK
6
CONTINUOUS
10
113.946
20
-79.6564
11
113.946
21
-80.3636
0
LINE
8
BLACK
6
CONTINUOUS
10
113.946
20
-80.3636
11
114.654
21
-80.3636
0
LINE
8
BLACK
6
CONTINUOUS
10
114.654
20
-82.9036
11
114.654
21
-82.1964
0
LINE
8
BLACK
6
CONTINUOUS
10
114.654
20
-82.1964
11
113.946
21
-82.1964
0
LINE
8
BLACK
6
CONTINUOUS
10
113.946
20
-82.1964
11
113.946
21
-82.9036
0
LINE
8
BLACK
6
CONTINUOUS
10
113.946
20
-82.9036
11
114.654
21
-82.9036
0
LINE
8
BLACK
6
CONTINUOUS
10
114.654
20
-85.4436
11
114.654
21
-84.7364
0
LINE
8
BLACK
6
CONTINUOUS
10
114.654
20
-84.7364
11
113.946
21
-84.7364
0
LINE
8
BLACK
6
CONTINUOUS
10
113.946
20
-84.7364
11
113.946
21
-85.4436
0
LINE
8
BLACK
6
CONTINUOUS
10
113.946
20
-85.4436
11
114.654
21
-85.4436
0
LINE
8
BLACK
6
CONTINUOUS
10
140.054
20
-39.7236
11
140.054
21
-39.0164
0
LINE
8
BLACK
6
CONTINUOUS
10
140.054
20
-39.0164
11
139.346
21
-39.0164
0
LINE
8
BLACK
6
CONTINUOUS
10
139.346
20
-39.0164
11
139.346
21
-39.7236
0
LINE
8
BLACK
6
CONTINUOUS
10
139.346
20
-39.7236
11
140.054
21
-39.7236
0
LINE
8
BLACK
6
CONTINUOUS
10
140.054
20
-42.2636
11
140.054
21
-41.5564
0
LINE
8
BLACK
6
CONTINUOUS
10
140.054
20
-41.5564
11
139.346
21
-41.5564
0
LINE
8
BLACK
6
CONTINUOUS
10
139.346
20
-41.5564
11
139.346
21
-42.2636
0
LINE
8
BLACK
6
CONTINUOUS
10
139.346
20
-42.2636
11
140.054
21
-42.2636
0
LINE
8
BLACK
6
CONTINUOUS
10
140.054
20
-44.8036
11
140.054
21
-44.0964
0
LINE
8
BLACK
6
CONTINUOUS
10
140.054
20
-44.0964
11
139.346
21
-44.0964
0
LINE
8
BLACK
6
CONTINUOUS
10
139.346
20
-44.0964
11
139.346
21
-44.8036
0
LINE
8
BLACK
6
CONTINUOUS
10
139.346
20
-44.8036
11
140.054
21
-44.8036
0
LINE
8
BLACK
6
CONTINUOUS
10
140.054
20
-47.3436
11
140.054
21
-46.6364
0
LINE
8
BLACK
6
CONTINUOUS
10
140.054
20
-46.6364
11
139.346
21
-46.6364
0
LINE
8
BLACK
6
CONTINUOUS
10
139.346
20
-46.6364
11
139.346
21
-47.3436
0
LINE
8
BLACK
6
CONTINUOUS
10
139.346
20
-47.3436
11
140.054
21
-47.3436
0
LINE
8
BLACK
6
CONTINUOUS
10
140.054
20
-49.8836
11
140.054
21
-49.1764
0
LINE
8
BLACK
6
CONTINUOUS
10
140.054
20
-49.1764
11
139.346
21
-49.1764
0
LINE
8
BLACK
6
CONTINUOUS
10
139.346
20
-49.1764
11
139.346
21
-49.8836
0
LINE
8
BLACK
6
CONTINUOUS
10
139.346
20
-49.8836
11
140.054
21
-49.8836
0
LINE
8
BLACK
6
CONTINUOUS
10
140.054
20
-52.4236
11
140.054
21
-51.7164
0
LINE
8
BLACK
6
CONTINUOUS
10
140.054
20
-51.7164
11
139.346
21
-51.7164
0
LINE
8
BLACK
6
CONTINUOUS
10
139.346
20
-51.7164
11
139.346
21
-52.4236
0
LINE
8
BLACK
6
CONTINUOUS
10
139.346
20
-52.4236
11
140.054
21
-52.4236
0
LINE
8
BLACK
6
CONTINUOUS
10
140.054
20
-54.9636
11
140.054
21
-54.2564
0
LINE
8
BLACK
6
CONTINUOUS
10
140.054
20
-54.2564
11
139.346
21
-54.2564
0
LINE
8
BLACK
6
CONTINUOUS
10
139.346
20
-54.2564
11
139.346
21
-54.9636
0
LINE
8
BLACK
6
CONTINUOUS
10
139.346
20
-54.9636
11
140.054
21
-54.9636
0
LINE
8
BLACK
6
CONTINUOUS
10
140.054
20
-57.5036
11
140.054
21
-56.7964
0
LINE
8
BLACK
6
CONTINUOUS
10
140.054
20
-56.7964
11
139.346
21
-56.7964
0
LINE
8
BLACK
6
CONTINUOUS
10
139.346
20
-56.7964
11
139.346
21
-57.5036
0
LINE
8
BLACK
6
CONTINUOUS
10
139.346
20
-57.5036
11
140.054
21
-57.5036
0
LINE
8
BLACK
6
CONTINUOUS
10
140.054
20
-60.0436
11
140.054
21
-59.3364
0
LINE
8
BLACK
6
CONTINUOUS
10
140.054
20
-59.3364
11
139.346
21
-59.3364
0
LINE
8
BLACK
6
CONTINUOUS
10
139.346
20
-59.3364
11
139.346
21
-60.0436
0
LINE
8
BLACK
6
CONTINUOUS
10
139.346
20
-60.0436
11
140.054
21
-60.0436
0
LINE
8
BLACK
6
CONTINUOUS
10
140.054
20
-62.5836
11
140.054
21
-61.8764
0
LINE
8
BLACK
6
CONTINUOUS
10
140.054
20
-61.8764
11
139.346
21
-61.8764
0
LINE
8
BLACK
6
CONTINUOUS
10
139.346
20
-61.8764
11
139.346
21
-62.5836
0
LINE
8
BLACK
6
CONTINUOUS
10
139.346
20
-62.5836
11
140.054
21
-62.5836
0
LINE
8
BLACK
6
CONTINUOUS
10
140.054
20
-65.1236
11
140.054
21
-64.4164
0
LINE
8
BLACK
6
CONTINUOUS
10
140.054
20
-64.4164
11
139.346
21
-64.4164
0
LINE
8
BLACK
6
CONTINUOUS
10
139.346
20
-64.4164
11
139.346
21
-65.1236
0
LINE
8
BLACK
6
CONTINUOUS
10
139.346
20
-65.1236
11
140.054
21
-65.1236
0
LINE
8
BLACK
6
CONTINUOUS
10
140.054
20
-67.6636
11
140.054
21
-66.9564
0
LINE
8
BLACK
6
CONTINUOUS
10
140.054
20
-66.9564
11
139.346
21
-66.9564
0
LINE
8
BLACK
6
CONTINUOUS
10
139.346
20
-66.9564
11
139.346
21
-67.6636
0
LINE
8
BLACK
6
CONTINUOUS
10
139.346
20
-67.6636
11
140.054
21
-67.6636
0
LINE
8
BLACK
6
CONTINUOUS
10
140.054
20
-70.2036
11
140.054
21
-69.4964
0
LINE
8
BLACK
6
CONTINUOUS
10
140.054
20
-69.4964
11
139.346
21
-69.4964
0
LINE
8
BLACK
6
CONTINUOUS
10
139.346
20
-69.4964
11
139.346
21
-70.2036
0
LINE
8
BLACK
6
CONTINUOUS
10
139.346
20
-70.2036
11
140.054
21
-70.2036
0
LINE
8
BLACK
6
CONTINUOUS
10
140.054
20
-72.7436
11
140.054
21
-72.0364
0
LINE
8
BLACK
6
CONTINUOUS
10
140.054
20
-72.0364
11
139.346
21
-72.0364
0
LINE
8
BLACK
6
CONTINUOUS
10
139.346
20
-72.0364
11
139.346
21
-72.7436
0
LINE
8
BLACK
6
CONTINUOUS
10
139.346
20
-72.7436
11
140.054
21
-72.7436
0
LINE
8
BLACK
6
CONTINUOUS
10
140.054
20
-75.2836
11
140.054
21
-74.5764
0
LINE
8
BLACK
6
CONTINUOUS
10
140.054
20
-74.5764
11
139.346
21
-74.5764
0
LINE
8
BLACK
6
CONTINUOUS
10
139.346
20
-74.5764
11
139.346
21
-75.2836
0
LINE
8
BLACK
6
CONTINUOUS
10
139.346
20
-75.2836
11
140.054
21
-75.2836
0
LINE
8
BLACK
6
CONTINUOUS
10
140.054
20
-77.8236
11
140.054
21
-77.1164
0
LINE
8
BLACK
6
CONTINUOUS
10
140.054
20
-77.1164
11
139.346
21
-77.1164
0
LINE
8
BLACK
6
CONTINUOUS
10
139.346
20
-77.1164
11
139.346
21
-77.8236
0
LINE
8
BLACK
6
CONTINUOUS
10
139.346
20
-77.8236
11
140.054
21
-77.8236
0
LINE
8
BLACK
6
CONTINUOUS
10
140.054
20
-80.3636
11
140.054
21
-79.6564
0
LINE
8
BLACK
6
CONTINUOUS
10
140.054
20
-79.6564
11
139.346
21
-79.6564
0
LINE
8
BLACK
6
CONTINUOUS
10
139.346
20
-79.6564
11
139.346
21
-80.3636
0
LINE
8
BLACK
6
CONTINUOUS
10
139.346
20
-80.3636
11
140.054
21
-80.3636
0
LINE
8
BLACK
6
CONTINUOUS
10
140.054
20
-82.9036
11
140.054
21
-82.1964
0
LINE
8
BLACK
6
CONTINUOUS
10
140.054
20
-82.1964
11
139.346
21
-82.1964
0
LINE
8
BLACK
6
CONTINUOUS
10
139.346
20
-82.1964
11
139.346
21
-82.9036
0
LINE
8
BLACK
6
CONTINUOUS
10
139.346
20
-82.9036
11
140.054
21
-82.9036
0
LINE
8
BLACK
6
CONTINUOUS
10
140.054
20
-85.4436
11
140.054
21
-84.7364
0
LINE
8
BLACK
6
CONTINUOUS
10
140.054
20
-84.7364
11
139.346
21
-84.7364
0
LINE
8
BLACK
6
CONTINUOUS
10
139.346
20
-84.7364
11
139.346
21
-85.4436
0
LINE
8
BLACK
6
CONTINUOUS
10
139.346
20
-85.4436
11
140.054
21
-85.4436
0
LINE
8
BLACK
6
CONTINUOUS
10
151.13
20
-33.57
11
151.68
21
-33.02
0
LINE
8
BLACK
6
CONTINUOUS
10
151.68
20
-33.02
11
151.13
21
-32.47
0
LINE
8
BLACK
6
CONTINUOUS
10
151.13
20
-32.47
11
150.58
21
-33.02
0
LINE
8
BLACK
6
CONTINUOUS
10
150.58
20
-33.02
11
151.13
21
-33.57
0
LINE
8
BLACK
6
CONTINUOUS
10
151.13
20
-36.11
11
151.68
21
-35.56
0
LINE
8
BLACK
6
CONTINUOUS
10
151.68
20
-35.56
11
151.13
21
-35.01
0
LINE
8
BLACK
6
CONTINUOUS
10
151.13
20
-35.01
11
150.58
21
-35.56
0
LINE
8
BLACK
6
CONTINUOUS
10
150.58
20
-35.56
11
151.13
21
-36.11
0
LINE
8
BLACK
6
CONTINUOUS
10
151.13
20
-38.65
11
151.68
21
-38.1
0
LINE
8
BLACK
6
CONTINUOUS
10
151.68
20
-38.1
11
151.13
21
-37.55
0
LINE
8
BLACK
6
CONTINUOUS
10
151.13
20
-37.55
11
150.58
21
-38.1
0
LINE
8
BLACK
6
CONTINUOUS
10
150.58
20
-38.1
11
151.13
21
-38.65
0
LINE
8
BLACK
6
CONTINUOUS
10
156.845
20
-41.825
11
157.395
21
-41.275
0
LINE
8
BLACK
6
CONTINUOUS
10
157.395
20
-41.275
11
156.845
21
-40.725
0
LINE
8
BLACK
6
CONTINUOUS
10
156.845
20
-40.725
11
156.295
21
-41.275
0
LINE
8
BLACK
6
CONTINUOUS
10
156.295
20
-41.275
11
156.845
21
-41.825
0
LINE
8
BLACK
6
CONTINUOUS
10
156.845
20
-44.365
11
157.395
21
-43.815
0
LINE
8
BLACK
6
CONTINUOUS
10
157.395
20
-43.815
11
156.845
21
-43.265
0
LINE
8
BLACK
6
CONTINUOUS
10
156.845
20
-43.265
11
156.295
21
-43.815
0
LINE
8
BLACK
6
CONTINUOUS
10
156.295
20
-43.815
11
156.845
21
-44.365
0
LINE
8
BLACK
6
CONTINUOUS
10
156.845
20
-46.905
11
157.395
21
-46.355
0
LINE
8
BLACK
6
CONTINUOUS
10
157.395
20
-46.355
11
156.845
21
-45.805
0
LINE
8
BLACK
6
CONTINUOUS
10
156.845
20
-45.805
11
156.295
21
-46.355
0
LINE
8
BLACK
6
CONTINUOUS
10
156.295
20
-46.355
11
156.845
21
-46.905
0
LINE
8
BLACK
6
CONTINUOUS
10
158.75
20
-60.24
11
159.3
21
-59.69
0
LINE
8
BLACK
6
CONTINUOUS
10
159.3
20
-59.69
11
158.75
21
-59.14
0
LINE
8
BLACK
6
CONTINUOUS
10
158.75
20
-59.14
11
158.2
21
-59.69
0
LINE
8
BLACK
6
CONTINUOUS
10
158.2
20
-59.69
11
158.75
21
-60.24
0
LINE
8
BLACK
6
CONTINUOUS
10
158.75
20
-62.78
11
159.3
21
-62.23
0
LINE
8
BLACK
6
CONTINUOUS
10
159.3
20
-62.23
11
158.75
21
-61.68
0
LINE
8
BLACK
6
CONTINUOUS
10
158.75
20
-61.68
11
158.2
21
-62.23
0
LINE
8
BLACK
6
CONTINUOUS
10
158.2
20
-62.23
11
158.75
21
-62.78
0
LINE
8
BLACK
6
CONTINUOUS
10
158.75
20
-65.32
11
159.3
21
-64.77
0
LINE
8
BLACK
6
CONTINUOUS
10
159.3
20
-64.77
11
158.75
21
-64.22
0
LINE
8
BLACK
6
CONTINUOUS
10
158.75
20
-64.22
11
158.2
21
-64.77
0
LINE
8
BLACK
6
CONTINUOUS
10
158.2
20
-64.77
11
158.75
21
-65.32
0
LINE
8
BLACK
6
CONTINUOUS
10
151.13
20
-70.4
11
151.68
21
-69.85
0
LINE
8
BLACK
6
CONTINUOUS
10
151.68
20
-69.85
11
151.13
21
-69.3
0
LINE
8
BLACK
6
CONTINUOUS
10
151.13
20
-69.3
11
150.58
21
-69.85
0
LINE
8
BLACK
6
CONTINUOUS
10
150.58
20
-69.85
11
151.13
21
-70.4
0
LINE
8
BLACK
6
CONTINUOUS
10
151.13
20
-72.94
11
151.68
21
-72.39
0
LINE
8
BLACK
6
CONTINUOUS
10
151.68
20
-72.39
11
151.13
21
-71.84
0
LINE
8
BLACK
6
CONTINUOUS
10
151.13
20
-71.84
11
150.58
21
-72.39
0
LINE
8
BLACK
6
CONTINUOUS
10
150.58
20
-72.39
11
151.13
21
-72.94
0
LINE
8
BLACK
6
CONTINUOUS
10
151.13
20
-75.48
11
151.68
21
-74.93
0
LINE
8
BLACK
6
CONTINUOUS
10
151.68
20
-74.93
11
151.13
21
-74.38
0
LINE
8
BLACK
6
CONTINUOUS
10
151.13
20
-74.38
11
150.58
21
-74.93
0
LINE
8
BLACK
6
CONTINUOUS
10
150.58
20
-74.93
11
151.13
21
-75.48
0
LINE
8
BLACK
6
CONTINUOUS
10
151.13
20
-50.08
11
151.68
21
-49.53
0
LINE
8
BLACK
6
CONTINUOUS
10
151.68
20
-49.53
11
151.13
21
-48.98
0
LINE
8
BLACK
6
CONTINUOUS
10
151.13
20
-48.98
11
150.58
21
-49.53
0
LINE
8
BLACK
6
CONTINUOUS
10
150.58
20
-49.53
11
151.13
21
-50.08
0
LINE
8
BLACK
6
CONTINUOUS
10
151.13
20
-52.62
11
151.68
21
-52.07
0
LINE
8
BLACK
6
CONTINUOUS
10
151.68
20
-52.07
11
151.13
21
-51.52
0
LINE
8
BLACK
6
CONTINUOUS
10
151.13
20
-51.52
11
150.58
21
-52.07
0
LINE
8
BLACK
6
CONTINUOUS
10
150.58
20
-52.07
11
151.13
21
-52.62
0
LINE
8
BLACK
6
CONTINUOUS
10
151.13
20
-55.16
11
151.68
21
-54.61
0
LINE
8
BLACK
6
CONTINUOUS
10
151.68
20
-54.61
11
151.13
21
-54.06
0
LINE
8
BLACK
6
CONTINUOUS
10
151.13
20
-54.06
11
150.58
21
-54.61
0
LINE
8
BLACK
6
CONTINUOUS
10
150.58
20
-54.61
11
151.13
21
-55.16
0
LINE
8
BLACK
6
CONTINUOUS
10
158.75
20
-80.56
11
159.3
21
-80.01
0
LINE
8
BLACK
6
CONTINUOUS
10
159.3
20
-80.01
11
158.75
21
-79.46
0
LINE
8
BLACK
6
CONTINUOUS
10
158.75
20
-79.46
11
158.2
21
-80.01
0
LINE
8
BLACK
6
CONTINUOUS
10
158.2
20
-80.01
11
158.75
21
-80.56
0
LINE
8
BLACK
6
CONTINUOUS
10
158.75
20
-83.1
11
159.3
21
-82.55
0
LINE
8
BLACK
6
CONTINUOUS
10
159.3
20
-82.55
11
158.75
21
-82
0
LINE
8
BLACK
6
CONTINUOUS
10
158.75
20
-82
11
158.2
21
-82.55
0
LINE
8
BLACK
6
CONTINUOUS
10
158.2
20
-82.55
11
158.75
21
-83.1
0
LINE
8
BLACK
6
CONTINUOUS
10
158.75
20
-85.64
11
159.3
21
-85.09
0
LINE
8
BLACK
6
CONTINUOUS
10
159.3
20
-85.09
11
158.75
21
-84.54
0
LINE
8
BLACK
6
CONTINUOUS
10
158.75
20
-84.54
11
158.2
21
-85.09
0
LINE
8
BLACK
6
CONTINUOUS
10
158.2
20
-85.09
11
158.75
21
-85.64
0
LINE
8
BLACK
6
CONTINUOUS
10
75.6
20
-29.88
11
76.8
21
-31.08
0
LINE
8
BLACK
6
CONTINUOUS
10
76.8
20
-29.88
11
75.6
21
-31.08
0
CIRCLE
8
BLACK
10
76.2
20
-30.48
40
0.6
0
LINE
8
BLACK
6
CONTINUOUS
10
75.6
20
-34.96
11
76.8
21
-36.16
0
LINE
8
BLACK
6
CONTINUOUS
10
76.8
20
-34.96
11
75.6
21
-36.16
0
CIRCLE
8
BLACK
10
76.2
20
-35.56
40
0.6
0
LINE
8
BLACK
6
CONTINUOUS
10
75.6
20
-40.04
11
76.8
21
-41.24
0
LINE
8
BLACK
6
CONTINUOUS
10
76.8
20
-40.04
11
75.6
21
-41.24
0
CIRCLE
8
BLACK
10
76.2
20
-40.64
40
0.6
0
LINE
8
BLACK
6
CONTINUOUS
10
75.6
20
-45.12
11
76.8
21
-46.32
0
LINE
8
BLACK
6
CONTINUOUS
10
76.8
20
-45.12
11
75.6
21
-46.32
0
CIRCLE
8
BLACK
10
76.2
20
-45.72
40
0.6
0
LINE
8
BLACK
6
CONTINUOUS
10
165.77
20
-31.15
11
166.97
21
-32.35
0
LINE
8
BLACK
6
CONTINUOUS
10
166.97
20
-31.15
11
165.77
21
-32.35
0
CIRCLE
8
BLACK
10
166.37
20
-31.75
40
0.6
0
LINE
8
BLACK
6
CONTINUOUS
10
165.77
20
-36.23
11
166.97
21
-37.43
0
LINE
8
BLACK
6
CONTINUOUS
10
166.97
20
-36.23
11
165.77
21
-37.43
0
CIRCLE
8
BLACK
10
166.37
20
-36.83
40
0.6
0
LINE
8
BLACK
6
CONTINUOUS
10
165.77
20
-41.31
11
166.97
21
-42.51
0
LINE
8
BLACK
6
CONTINUOUS
10
166.97
20
-41.31
11
165.77
21
-42.51
0
CIRCLE
8
BLACK
10
166.37
20
-41.91
40
0.6
0
LINE
8
BLACK
6
CONTINUOUS
10
165.77
20
-46.39
11
166.97
21
-47.59
0
LINE
8
BLACK
6
CONTINUOUS
10
166.97
20
-46.39
11
165.77
21
-47.59
0
CIRCLE
8
BLACK
10
166.37
20
-46.99
40
0.6
0
LINE
8
BLACK
6
CONTINUOUS
10
165.77
20
-51.47
11
166.97
21
-52.67
0
LINE
8
BLACK
6
CONTINUOUS
10
166.97
20
-51.47
11
165.77
21
-52.67
0
CIRCLE
8
BLACK
10
166.37
20
-52.07
40
0.6
0
LINE
8
BLACK
6
CONTINUOUS
10
165.77
20
-56.55
11
166.97
21
-57.75
0
LINE
8
BLACK
6
CONTINUOUS
10
166.97
20
-56.55
11
165.77
21
-57.75
0
CIRCLE
8
BLACK
10
166.37
20
-57.15
40
0.6
0
LINE
8
BLACK
6
CONTINUOUS
10
165.77
20
-61.63
11
166.97
21
-62.83
0
LINE
8
BLACK
6
CONTINUOUS
10
166.97
20
-61.63
11
165.77
21
-62.83
0
CIRCLE
8
BLACK
10
166.37
20
-62.23
40
0.6
0
LINE
8
BLACK
6
CONTINUOUS
10
165.77
20
-66.71
11
166.97
21
-67.91
0
LINE
8
BLACK
6
CONTINUOUS
10
166.97
20
-66.71
11
165.77
21
-67.91
0
CIRCLE
8
BLACK
10
166.37
20
-67.31
40
0.6
0
LINE
8
BLACK
6
CONTINUOUS
10
165.77
20
-71.79
11
166.97
21
-72.99
0
LINE
8
BLACK
6
CONTINUOUS
10
166.97
20
-71.79
11
165.77
21
-72.99
0
CIRCLE
8
BLACK
10
166.37
20
-72.39
40
0.6
0
LINE
8
BLACK
6
CONTINUOUS
10
165.77
20
-76.87
11
166.97
21
-78.07
0
LINE
8
BLACK
6
CONTINUOUS
10
166.97
20
-76.87
11
165.77
21
-78.07
0
CIRCLE
8
BLACK
10
166.37
20
-77.47
40
0.6
0
LINE
8
BLACK
6
CONTINUOUS
10
165.77
20
-81.95
11
166.97
21
-83.15
0
LINE
8
BLACK
6
CONTINUOUS
10
166.97
20
-81.95
11
165.77
21
-83.15
0
CIRCLE
8
BLACK
10
166.37
20
-82.55
40
0.6
0
LINE
8
BLACK
6
CONTINUOUS
10
165.77
20
-87.03
11
166.97
21
-88.23
0
LINE
8
BLACK
6
CONTINUOUS
10
166.97
20
-87.03
11
165.77
21
-88.23
0
CIRCLE
8
BLACK
10
166.37
20
-87.63
40
0.6
0
LINE
8
BLACK
6
CONTINUOUS
10
75.6
20
-78.775
11
76.8
21
-79.975
0
LINE
8
BLACK
6
CONTINUOUS
10
76.8
20
-78.775
11
75.6
21
-79.975
0
CIRCLE
8
BLACK
10
76.2
20
-79.375
40
0.6
0
LINE
8
BLACK
6
CONTINUOUS
10
75.6
20
-83.855
11
76.8
21
-85.055
0
LINE
8
BLACK
6
CONTINUOUS
10
76.8
20
-83.855
11
75.6
21
-85.055
0
CIRCLE
8
BLACK
10
76.2
20
-84.455
40
0.6
0
LINE
8
BLACK
6
CONTINUOUS
10
75.6
20
-88.935
11
76.8
21
-90.135
0
LINE
8
BLACK
6
CONTINUOUS
10
76.8
20
-88.935
11
75.6
21
-90.135
0
CIRCLE
8
BLACK
10
76.2
20
-89.535
40
0.6
0
LINE
8
BLACK
6
CONTINUOUS
10
75.6
20
-94.015
11
76.8
21
-95.215
0
LINE
8
BLACK
6
CONTINUOUS
10
76.8
20
-94.015
11
75.6
21
-95.215
0
CIRCLE
8
BLACK
10
76.2
20
-94.615
40
0.6
0
LINE
8
BLACK
6
CONTINUOUS
10
75.6
20
-99.095
11
76.8
21
-100.295
0
LINE
8
BLACK
6
CONTINUOUS
10
76.8
20
-99.095
11
75.6
21
-100.295
0
CIRCLE
8
BLACK
10
76.2
20
-99.695
40
0.6
0
LINE
8
BLACK
6
CONTINUOUS
10
75.6
20
-104.175
11
76.8
21
-105.375
0
LINE
8
BLACK
6
CONTINUOUS
10
76.8
20
-104.175
11
75.6
21
-105.375
0
CIRCLE
8
BLACK
10
76.2
20
-104.775
40
0.6
0
LINE
8
BLACK
6
CONTINUOUS
10
75.6
20
-109.255
11
76.8
21
-110.455
0
LINE
8
BLACK
6
CONTINUOUS
10
76.8
20
-109.255
11
75.6
21
-110.455
0
CIRCLE
8
BLACK
10
76.2
20
-109.855
40
0.6
0
LINE
8
BLACK
6
CONTINUOUS
10
75.6
20
-114.335
11
76.8
21
-115.535
0
LINE
8
BLACK
6
CONTINUOUS
10
76.8
20
-114.335
11
75.6
21
-115.535
0
CIRCLE
8
BLACK
10
76.2
20
-114.935
40
0.6
0
LINE
8
BLACK
6
CONTINUOUS
10
165.77
20
-93.38
11
166.97
21
-94.58
0
LINE
8
BLACK
6
CONTINUOUS
10
166.97
20
-93.38
11
165.77
21
-94.58
0
CIRCLE
8
BLACK
10
166.37
20
-93.98
40
0.6
0
LINE
8
BLACK
6
CONTINUOUS
10
165.77
20
-98.46
11
166.97
21
-99.66
0
LINE
8
BLACK
6
CONTINUOUS
10
166.97
20
-98.46
11
165.77
21
-99.66
0
CIRCLE
8
BLACK
10
166.37
20
-99.06
40
0.6
0
LINE
8
BLACK
6
CONTINUOUS
10
165.77
20
-103.54
11
166.97
21
-104.74
0
LINE
8
BLACK
6
CONTINUOUS
10
166.97
20
-103.54
11
165.77
21
-104.74
0
CIRCLE
8
BLACK
10
166.37
20
-104.14
40
0.6
0
LINE
8
BLACK
6
CONTINUOUS
10
165.77
20
-108.62
11
166.97
21
-109.82
0
LINE
8
BLACK
6
CONTINUOUS
10
166.97
20
-108.62
11
165.77
21
-109.82
0
CIRCLE
8
BLACK
10
166.37
20
-109.22
40
0.6
0
LINE
8
BLACK
6
CONTINUOUS
10
165.77
20
-113.7
11
166.97
21
-114.9
0
LINE
8
BLACK
6
CONTINUOUS
10
166.97
20
-113.7
11
165.77
21
-114.9
0
CIRCLE
8
BLACK
10
166.37
20
-114.3
40
0.6
0
LINE
8
BLACK
6
CONTINUOUS
10
159.055
20
-33.96
11
162.255
21
-37.16
0
LINE
8
BLACK
6
CONTINUOUS
10
162.255
20
-33.96
11
159.055
21
-37.16
0
LINE
8
BLACK
6
CONTINUOUS
10
160.655
20
-33.96
11
160.655
21
-37.16
0
LINE
8
BLACK
6
CONTINUOUS
10
159.055
20
-35.56
11
162.255
21
-35.56
0
LINE
8
BLACK
6
CONTINUOUS
10
159.055
20
-111.43
11
162.255
21
-114.63
0
LINE
8
BLACK
6
CONTINUOUS
10
162.255
20
-111.43
11
159.055
21
-114.63
0
LINE
8
BLACK
6
CONTINUOUS
10
160.655
20
-111.43
11
160.655
21
-114.63
0
LINE
8
BLACK
6
CONTINUOUS
10
159.055
20
-113.03
11
162.255
21
-113.03
0
LINE
8
BLACK
6
CONTINUOUS
10
81.585
20
-44.12
11
84.785
21
-47.32
0
LINE
8
BLACK
6
CONTINUOUS
10
84.785
20
-44.12
11
81.585
21
-47.32
0
LINE
8
BLACK
6
CONTINUOUS
10
83.185
20
-44.12
11
83.185
21
-47.32
0
LINE
8
BLACK
6
CONTINUOUS
10
81.585
20
-45.72
11
84.785
21
-45.72
0
LINE
8
BLACK
6
CONTINUOUS
10
81.585
20
-87.935
11
84.785
21
-91.135
0
LINE
8
BLACK
6
CONTINUOUS
10
84.785
20
-87.935
11
81.585
21
-91.135
0
LINE
8
BLACK
6
CONTINUOUS
10
83.185
20
-87.935
11
83.185
21
-91.135
0
LINE
8
BLACK
6
CONTINUOUS
10
81.585
20
-89.535
11
84.785
21
-89.535
0
LINE
8
BLACK
6
CONTINUOUS
10
103.81
20
-111.43
11
107.01
21
-114.63
0
LINE
8
BLACK
6
CONTINUOUS
10
107.01
20
-111.43
11
103.81
21
-114.63
0
LINE
8
BLACK
6
CONTINUOUS
10
105.41
20
-111.43
11
105.41
21
-114.63
0
LINE
8
BLACK
6
CONTINUOUS
10
103.81
20
-113.03
11
107.01
21
-113.03
0
LINE
8
BLACK
6
CONTINUOUS
10
159.055
20
-70.155
11
162.255
21
-73.355
0
LINE
8
BLACK
6
CONTINUOUS
10
162.255
20
-70.155
11
159.055
21
-73.355
0
LINE
8
BLACK
6
CONTINUOUS
10
160.655
20
-70.155
11
160.655
21
-73.355
0
LINE
8
BLACK
6
CONTINUOUS
10
159.055
20
-71.755
11
162.255
21
-71.755
0
LINE
8
BLACK
6
CONTINUOUS
10
121.59
20
-44.12
11
124.79
21
-47.32
0
LINE
8
BLACK
6
CONTINUOUS
10
124.79
20
-44.12
11
121.59
21
-47.32
0
LINE
8
BLACK
6
CONTINUOUS
10
123.19
20
-44.12
11
123.19
21
-47.32
0
LINE
8
BLACK
6
CONTINUOUS
10
121.59
20
-45.72
11
124.79
21
-45.72
0
LINE
8
BLACK
6
CONTINUOUS
10
81.585
20
-30.785
11
84.785
21
-33.985
0
LINE
8
BLACK
6
CONTINUOUS
10
84.785
20
-30.785
11
81.585
21
-33.985
0
LINE
8
BLACK
6
CONTINUOUS
10
83.185
20
-30.785
11
83.185
21
-33.985
0
LINE
8
BLACK
6
CONTINUOUS
10
81.585
20
-32.385
11
84.785
21
-32.385
0
LINE
8
BLACK
6
CONTINUOUS
10
71.4193
20
-122.792
11
71.4193
21
-119.792
0
LINE
8
BLACK
6
CONTINUOUS
10
71.4193
20
-119.792
11
72.1336
21
-119.792
0
LINE
8
BLACK
6
CONTINUOUS
10
72.1336
20
-119.792
11
72.5621
21
-119.935
0
LINE
8
BLACK
6
CONTINUOUS
10
72.5621
20
-119.935
11
72.8479
21
-120.221
0
LINE
8
BLACK
6
CONTINUOUS
10
72.8479
20
-120.221
11
72.9907
21
-120.506
0
LINE
8
BLACK
6
CONTINUOUS
10
72.9907
20
-120.506
11
73.1336
21
-121.078
0
LINE
8
BLACK
6
CONTINUOUS
10
73.1336
20
-121.078
11
73.1336
21
-121.506
0
LINE
8
BLACK
6
CONTINUOUS
10
73.1336
20
-121.506
11
72.9907
21
-122.078
0
LINE
8
BLACK
6
CONTINUOUS
10
72.9907
20
-122.078
11
72.8479
21
-122.364
0
LINE
8
BLACK
6
CONTINUOUS
10
72.8479
20
-122.364
11
72.5621
21
-122.649
0
LINE
8
BLACK
6
CONTINUOUS
10
72.5621
20
-122.649
11
72.1336
21
-122.792
0
LINE
8
BLACK
6
CONTINUOUS
10
72.1336
20
-122.792
11
71.4193
21
-122.792
0
LINE
8
BLACK
6
CONTINUOUS
10
74.4193
20
-122.792
11
74.4193
21
-120.792
0
LINE
8
BLACK
6
CONTINUOUS
10
74.4193
20
-121.364
11
74.5621
21
-121.078
0
LINE
8
BLACK
6
CONTINUOUS
10
74.5621
20
-121.078
11
74.705
21
-120.935
0
LINE
8
BLACK
6
CONTINUOUS
10
74.705
20
-120.935
11
74.9907
21
-120.792
0
LINE
8
BLACK
6
CONTINUOUS
10
74.9907
20
-120.792
11
75.2764
21
-120.792
0
LINE
8
BLACK
6
CONTINUOUS
10
76.2764
20
-122.792
11
76.2764
21
-120.792
0
LINE
8
BLACK
6
CONTINUOUS
10
76.2764
20
-119.792
11
76.1336
21
-119.935
0
LINE
8
BLACK
6
CONTINUOUS
10
76.1336
20
-119.935
11
76.2764
21
-120.078
0
LINE
8
BLACK
6
CONTINUOUS
10
76.2764
20
-120.078
11
76.4193
21
-119.935
0
LINE
8
BLACK
6
CONTINUOUS
10
76.4193
20
-119.935
11
76.2764
21
-119.792
0
LINE
8
BLACK
6
CONTINUOUS
10
76.2764
20
-119.792
11
76.2764
21
-120.078
0
LINE
8
BLACK
6
CONTINUOUS
10
78.1336
20
-122.792
11
77.8479
21
-122.649
0
LINE
8
BLACK
6
CONTINUOUS
10
77.8479
20
-122.649
11
77.705
21
-122.364
0
LINE
8
BLACK
6
CONTINUOUS
10
77.705
20
-122.364
11
77.705
21
-119.792
0
LINE
8
BLACK
6
CONTINUOUS
10
79.705
20
-122.792
11
79.4193
21
-122.649
0
LINE
8
BLACK
6
CONTINUOUS
10
79.4193
20
-122.649
11
79.2764
21
-122.364
0
LINE
8
BLACK
6
CONTINUOUS
10
79.2764
20
-122.364
11
79.2764
21
-119.792
0
LINE
8
BLACK
6
CONTINUOUS
10
83.1336
20
-122.792
11
83.1336
21
-119.792
0
LINE
8
BLACK
6
CONTINUOUS
10
83.1336
20
-119.792
11
84.1336
21
-121.935
0
LINE
8
BLACK
6
CONTINUOUS
10
84.1336
20
-121.935
11
85.1336
21
-119.792
0
LINE
8
BLACK
6
CONTINUOUS
10
85.1336
20
-119.792
11
85.1336
21
-122.792
0
LINE
8
BLACK
6
CONTINUOUS
10
87.8479
20
-122.792
11
87.8479
21
-121.221
0
LINE
8
BLACK
6
CONTINUOUS
10
87.8479
20
-121.221
11
87.705
21
-120.935
0
LINE
8
BLACK
6
CONTINUOUS
10
87.705
20
-120.935
11
87.4193
21
-120.792
0
LINE
8
BLACK
6
CONTINUOUS
10
87.4193
20
-120.792
11
86.8479
21
-120.792
0
LINE
8
BLACK
6
CONTINUOUS
10
86.8479
20
-120.792
11
86.5621
21
-120.935
0
LINE
8
BLACK
6
CONTINUOUS
10
87.8479
20
-122.649
11
87.5621
21
-122.792
0
LINE
8
BLACK
6
CONTINUOUS
10
87.5621
20
-122.792
11
86.8479
21
-122.792
0
LINE
8
BLACK
6
CONTINUOUS
10
86.8479
20
-122.792
11
86.5621
21
-122.649
0
LINE
8
BLACK
6
CONTINUOUS
10
86.5621
20
-122.649
11
86.4193
21
-122.364
0
LINE
8
BLACK
6
CONTINUOUS
10
86.4193
20
-122.364
11
86.4193
21
-122.078
0
LINE
8
BLACK
6
CONTINUOUS
10
86.4193
20
-122.078
11
86.5621
21
-121.792
0
LINE
8
BLACK
6
CONTINUOUS
10
86.5621
20
-121.792
11
86.8479
21
-121.649
0
LINE
8
BLACK
6
CONTINUOUS
10
86.8479
20
-121.649
11
87.5621
21
-121.649
0
LINE
8
BLACK
6
CONTINUOUS
10
87.5621
20
-121.649
11
87.8479
21
-121.506
0
LINE
8
BLACK
6
CONTINUOUS
10
89.2764
20
-120.792
11
89.2764
21
-123.792
0
LINE
8
BLACK
6
CONTINUOUS
10
89.2764
20
-120.935
11
89.5621
21
-120.792
0
LINE
8
BLACK
6
CONTINUOUS
10
89.5621
20
-120.792
11
90.1336
21
-120.792
0
LINE
8
BLACK
6
CONTINUOUS
10
90.1336
20
-120.792
11
90.4193
21
-120.935
0
LINE
8
BLACK
6
CONTINUOUS
10
90.4193
20
-120.935
11
90.5621
21
-121.078
0
LINE
8
BLACK
6
CONTINUOUS
10
90.5621
20
-121.078
11
90.705
21
-121.364
0
LINE
8
BLACK
6
CONTINUOUS
10
90.705
20
-121.364
11
90.705
21
-122.221
0
LINE
8
BLACK
6
CONTINUOUS
10
90.705
20
-122.221
11
90.5621
21
-122.506
0
LINE
8
BLACK
6
CONTINUOUS
10
90.5621
20
-122.506
11
90.4193
21
-122.649
0
LINE
8
BLACK
6
CONTINUOUS
10
90.4193
20
-122.649
11
90.1336
21
-122.792
0
LINE
8
BLACK
6
CONTINUOUS
10
90.1336
20
-122.792
11
89.5621
21
-122.792
0
LINE
8
BLACK
6
CONTINUOUS
10
89.5621
20
-122.792
11
89.2764
21
-122.649
0
LINE
8
BLACK
6
CONTINUOUS
10
91.9907
20
-122.506
11
92.1336
21
-122.649
0
LINE
8
BLACK
6
CONTINUOUS
10
92.1336
20
-122.649
11
91.9907
21
-122.792
0
LINE
8
BLACK
6
CONTINUOUS
10
91.9907
20
-122.792
11
91.8479
21
-122.649
0
LINE
8
BLACK
6
CONTINUOUS
10
91.8479
20
-122.649
11
91.9907
21
-122.506
0
LINE
8
BLACK
6
CONTINUOUS
10
91.9907
20
-122.506
11
91.9907
21
-122.792
0
LINE
8
BLACK
6
CONTINUOUS
10
91.9907
20
-120.935
11
92.1336
21
-121.078
0
LINE
8
BLACK
6
CONTINUOUS
10
92.1336
20
-121.078
11
91.9907
21
-121.221
0
LINE
8
BLACK
6
CONTINUOUS
10
91.9907
20
-121.221
11
91.8479
21
-121.078
0
LINE
8
BLACK
6
CONTINUOUS
10
91.8479
20
-121.078
11
91.9907
21
-120.935
0
LINE
8
BLACK
6
CONTINUOUS
10
91.9907
20
-120.935
11
91.9907
21
-121.221
0
LINE
8
BLACK
6
CONTINUOUS
10
68.155
20
-127.535
11
68.555
21
-127.935
0
LINE
8
BLACK
6
CONTINUOUS
10
68.555
20
-127.535
11
68.155
21
-127.935
0
LINE
8
BLACK
6
CONTINUOUS
10
71.9907
20
-126.092
11
72.2764
21
-126.092
0
LINE
8
BLACK
6
CONTINUOUS
10
72.2764
20
-126.092
11
72.5621
21
-126.235
0
LINE
8
BLACK
6
CONTINUOUS
10
72.5621
20
-126.235
11
72.705
21
-126.378
0
LINE
8
BLACK
6
CONTINUOUS
10
72.705
20
-126.378
11
72.8479
21
-126.664
0
LINE
8
BLACK
6
CONTINUOUS
10
72.8479
20
-126.664
11
72.9907
21
-127.235
0
LINE
8
BLACK
6
CONTINUOUS
10
72.9907
20
-127.235
11
72.9907
21
-127.949
0
LINE
8
BLACK
6
CONTINUOUS
10
72.9907
20
-127.949
11
72.8479
21
-128.521
0
LINE
8
BLACK
6
CONTINUOUS
10
72.8479
20
-128.521
11
72.705
21
-128.806
0
LINE
8
BLACK
6
CONTINUOUS
10
72.705
20
-128.806
11
72.5621
21
-128.949
0
LINE
8
BLACK
6
CONTINUOUS
10
72.5621
20
-128.949
11
72.2764
21
-129.092
0
LINE
8
BLACK
6
CONTINUOUS
10
72.2764
20
-129.092
11
71.9907
21
-129.092
0
LINE
8
BLACK
6
CONTINUOUS
10
71.9907
20
-129.092
11
71.705
21
-128.949
0
LINE
8
BLACK
6
CONTINUOUS
10
71.705
20
-128.949
11
71.5621
21
-128.806
0
LINE
8
BLACK
6
CONTINUOUS
10
71.5621
20
-128.806
11
71.4193
21
-128.521
0
LINE
8
BLACK
6
CONTINUOUS
10
71.4193
20
-128.521
11
71.2764
21
-127.949
0
LINE
8
BLACK
6
CONTINUOUS
10
71.2764
20
-127.949
11
71.2764
21
-127.235
0
LINE
8
BLACK
6
CONTINUOUS
10
71.2764
20
-127.235
11
71.4193
21
-126.664
0
LINE
8
BLACK
6
CONTINUOUS
10
71.4193
20
-126.664
11
71.5621
21
-126.378
0
LINE
8
BLACK
6
CONTINUOUS
10
71.5621
20
-126.378
11
71.705
21
-126.235
0
LINE
8
BLACK
6
CONTINUOUS
10
71.705
20
-126.235
11
71.9907
21
-126.092
0
LINE
8
BLACK
6
CONTINUOUS
10
74.2764
20
-128.806
11
74.4193
21
-128.949
0
LINE
8
BLACK
6
CONTINUOUS
10
74.4193
20
-128.949
11
74.2764
21
-129.092
0
LINE
8
BLACK
6
CONTINUOUS
10
74.2764
20
-129.092
11
74.1336
21
-128.949
0
LINE
8
BLACK
6
CONTINUOUS
10
74.1336
20
-128.949
11
74.2764
21
-128.806
0
LINE
8
BLACK
6
CONTINUOUS
10
74.2764
20
-128.806
11
74.2764
21
-129.092
0
LINE
8
BLACK
6
CONTINUOUS
10
76.9907
20
-127.092
11
76.9907
21
-129.092
0
LINE
8
BLACK
6
CONTINUOUS
10
76.2764
20
-125.949
11
75.5621
21
-128.092
0
LINE
8
BLACK
6
CONTINUOUS
10
75.5621
20
-128.092
11
77.4193
21
-128.092
0
LINE
8
BLACK
6
CONTINUOUS
10
79.1336
20
-126.092
11
79.4193
21
-126.092
0
LINE
8
BLACK
6
CONTINUOUS
10
79.4193
20
-126.092
11
79.705
21
-126.235
0
LINE
8
BLACK
6
CONTINUOUS
10
79.705
20
-126.235
11
79.8479
21
-126.378
0
LINE
8
BLACK
6
CONTINUOUS
10
79.8479
20
-126.378
11
79.9907
21
-126.664
0
LINE
8
BLACK
6
CONTINUOUS
10
79.9907
20
-126.664
11
80.1336
21
-127.235
0
LINE
8
BLACK
6
CONTINUOUS
10
80.1336
20
-127.235
11
80.1336
21
-127.949
0
LINE
8
BLACK
6
CONTINUOUS
10
80.1336
20
-127.949
11
79.9907
21
-128.521
0
LINE
8
BLACK
6
CONTINUOUS
10
79.9907
20
-128.521
11
79.8479
21
-128.806
0
LINE
8
BLACK
6
CONTINUOUS
10
79.8479
20
-128.806
11
79.705
21
-128.949
0
LINE
8
BLACK
6
CONTINUOUS
10
79.705
20
-128.949
11
79.4193
21
-129.092
0
LINE
8
BLACK
6
CONTINUOUS
10
79.4193
20
-129.092
11
79.1336
21
-129.092
0
LINE
8
BLACK
6
CONTINUOUS
10
79.1336
20
-129.092
11
78.8479
21
-128.949
0
LINE
8
BLACK
6
CONTINUOUS
10
78.8479
20
-128.949
11
78.705
21
-128.806
0
LINE
8
BLACK
6
CONTINUOUS
10
78.705
20
-128.806
11
78.5621
21
-128.521
0
LINE
8
BLACK
6
CONTINUOUS
10
78.5621
20
-128.521
11
78.4193
21
-127.949
0
LINE
8
BLACK
6
CONTINUOUS
10
78.4193
20
-127.949
11
78.4193
21
-127.235
0
LINE
8
BLACK
6
CONTINUOUS
10
78.4193
20
-127.235
11
78.5621
21
-126.664
0
LINE
8
BLACK
6
CONTINUOUS
10
78.5621
20
-126.664
11
78.705
21
-126.378
0
LINE
8
BLACK
6
CONTINUOUS
10
78.705
20
-126.378
11
78.8479
21
-126.235
0
LINE
8
BLACK
6
CONTINUOUS
10
78.8479
20
-126.235
11
79.1336
21
-126.092
0
LINE
8
BLACK
6
CONTINUOUS
10
81.4193
20
-129.092
11
81.4193
21
-127.092
0
LINE
8
BLACK
6
CONTINUOUS
10
81.4193
20
-127.378
11
81.5621
21
-127.235
0
LINE
8
BLACK
6
CONTINUOUS
10
81.5621
20
-127.235
11
81.8479
21
-127.092
0
LINE
8
BLACK
6
CONTINUOUS
10
81.8479
20
-127.092
11
82.2764
21
-127.092
0
LINE
8
BLACK
6
CONTINUOUS
10
82.2764
20
-127.092
11
82.5621
21
-127.235
0
LINE
8
BLACK
6
CONTINUOUS
10
82.5621
20
-127.235
11
82.705
21
-127.521
0
LINE
8
BLACK
6
CONTINUOUS
10
82.705
20
-127.521
11
82.705
21
-129.092
0
LINE
8
BLACK
6
CONTINUOUS
10
82.705
20
-127.521
11
82.8479
21
-127.235
0
LINE
8
BLACK
6
CONTINUOUS
10
82.8479
20
-127.235
11
83.1336
21
-127.092
0
LINE
8
BLACK
6
CONTINUOUS
10
83.1336
20
-127.092
11
83.5621
21
-127.092
0
LINE
8
BLACK
6
CONTINUOUS
10
83.5621
20
-127.092
11
83.8479
21
-127.235
0
LINE
8
BLACK
6
CONTINUOUS
10
83.8479
20
-127.235
11
83.9907
21
-127.521
0
LINE
8
BLACK
6
CONTINUOUS
10
83.9907
20
-127.521
11
83.9907
21
-129.092
0
LINE
8
BLACK
6
CONTINUOUS
10
85.4193
20
-129.092
11
85.4193
21
-127.092
0
LINE
8
BLACK
6
CONTINUOUS
10
85.4193
20
-127.378
11
85.5621
21
-127.235
0
LINE
8
BLACK
6
CONTINUOUS
10
85.5621
20
-127.235
11
85.8479
21
-127.092
0
LINE
8
BLACK
6
CONTINUOUS
10
85.8479
20
-127.092
11
86.2764
21
-127.092
0
LINE
8
BLACK
6
CONTINUOUS
10
86.2764
20
-127.092
11
86.5621
21
-127.235
0
LINE
8
BLACK
6
CONTINUOUS
10
86.5621
20
-127.235
11
86.705
21
-127.521
0
LINE
8
BLACK
6
CONTINUOUS
10
86.705
20
-127.521
11
86.705
21
-129.092
0
LINE
8
BLACK
6
CONTINUOUS
10
86.705
20
-127.521
11
86.8479
21
-127.235
0
LINE
8
BLACK
6
CONTINUOUS
10
86.8479
20
-127.235
11
87.1336
21
-127.092
0
LINE
8
BLACK
6
CONTINUOUS
10
87.1336
20
-127.092
11
87.5621
21
-127.092
0
LINE
8
BLACK
6
CONTINUOUS
10
87.5621
20
-127.092
11
87.8479
21
-127.235
0
LINE
8
BLACK
6
CONTINUOUS
10
87.8479
20
-127.235
11
87.9907
21
-127.521
0
LINE
8
BLACK
6
CONTINUOUS
10
87.9907
20
-127.521
11
87.9907
21
-129.092
0
LINE
8
BLACK
6
CONTINUOUS
10
93.8479
20
-125.949
11
91.2764
21
-129.806
0
LINE
8
BLACK
6
CONTINUOUS
10
97.705
20
-126.092
11
97.9907
21
-126.092
0
LINE
8
BLACK
6
CONTINUOUS
10
97.9907
20
-126.092
11
98.2764
21
-126.235
0
LINE
8
BLACK
6
CONTINUOUS
10
98.2764
20
-126.235
11
98.4193
21
-126.378
0
LINE
8
BLACK
6
CONTINUOUS
10
98.4193
20
-126.378
11
98.5621
21
-126.664
0
LINE
8
BLACK
6
CONTINUOUS
10
98.5621
20
-126.664
11
98.705
21
-127.235
0
LINE
8
BLACK
6
CONTINUOUS
10
98.705
20
-127.235
11
98.705
21
-127.949
0
LINE
8
BLACK
6
CONTINUOUS
10
98.705
20
-127.949
11
98.5621
21
-128.521
0
LINE
8
BLACK
6
CONTINUOUS
10
98.5621
20
-128.521
11
98.4193
21
-128.806
0
LINE
8
BLACK
6
CONTINUOUS
10
98.4193
20
-128.806
11
98.2764
21
-128.949
0
LINE
8
BLACK
6
CONTINUOUS
10
98.2764
20
-128.949
11
97.9907
21
-129.092
0
LINE
8
BLACK
6
CONTINUOUS
10
97.9907
20
-129.092
11
97.705
21
-129.092
0
LINE
8
BLACK
6
CONTINUOUS
10
97.705
20
-129.092
11
97.4193
21
-128.949
0
LINE
8
BLACK
6
CONTINUOUS
10
97.4193
20
-128.949
11
97.2764
21
-128.806
0
LINE
8
BLACK
6
CONTINUOUS
10
97.2764
20
-128.806
11
97.1336
21
-128.521
0
LINE
8
BLACK
6
CONTINUOUS
10
97.1336
20
-128.521
11
96.9907
21
-127.949
0
LINE
8
BLACK
6
CONTINUOUS
10
96.9907
20
-127.949
11
96.9907
21
-127.235
0
LINE
8
BLACK
6
CONTINUOUS
10
96.9907
20
-127.235
11
97.1336
21
-126.664
0
LINE
8
BLACK
6
CONTINUOUS
10
97.1336
20
-126.664
11
97.2764
21
-126.378
0
LINE
8
BLACK
6
CONTINUOUS
10
97.2764
20
-126.378
11
97.4193
21
-126.235
0
LINE
8
BLACK
6
CONTINUOUS
10
97.4193
20
-126.235
11
97.705
21
-126.092
0
LINE
8
BLACK
6
CONTINUOUS
10
99.9907
20
-128.806
11
100.134
21
-128.949
0
LINE
8
BLACK
6
CONTINUOUS
10
100.134
20
-128.949
11
99.9907
21
-129.092
0
LINE
8
BLACK
6
CONTINUOUS
10
99.9907
20
-129.092
11
99.8479
21
-128.949
0
LINE
8
BLACK
6
CONTINUOUS
10
99.8479
20
-128.949
11
99.9907
21
-128.806
0
LINE
8
BLACK
6
CONTINUOUS
10
99.9907
20
-128.806
11
99.9907
21
-129.092
0
LINE
8
BLACK
6
CONTINUOUS
10
101.991
20
-126.092
11
102.276
21
-126.092
0
LINE
8
BLACK
6
CONTINUOUS
10
102.276
20
-126.092
11
102.562
21
-126.235
0
LINE
8
BLACK
6
CONTINUOUS
10
102.562
20
-126.235
11
102.705
21
-126.378
0
LINE
8
BLACK
6
CONTINUOUS
10
102.705
20
-126.378
11
102.848
21
-126.664
0
LINE
8
BLACK
6
CONTINUOUS
10
102.848
20
-126.664
11
102.991
21
-127.235
0
LINE
8
BLACK
6
CONTINUOUS
10
102.991
20
-127.235
11
102.991
21
-127.949
0
LINE
8
BLACK
6
CONTINUOUS
10
102.991
20
-127.949
11
102.848
21
-128.521
0
LINE
8
BLACK
6
CONTINUOUS
10
102.848
20
-128.521
11
102.705
21
-128.806
0
LINE
8
BLACK
6
CONTINUOUS
10
102.705
20
-128.806
11
102.562
21
-128.949
0
LINE
8
BLACK
6
CONTINUOUS
10
102.562
20
-128.949
11
102.276
21
-129.092
0
LINE
8
BLACK
6
CONTINUOUS
10
102.276
20
-129.092
11
101.991
21
-129.092
0
LINE
8
BLACK
6
CONTINUOUS
10
101.991
20
-129.092
11
101.705
21
-128.949
0
LINE
8
BLACK
6
CONTINUOUS
10
101.705
20
-128.949
11
101.562
21
-128.806
0
LINE
8
BLACK
6
CONTINUOUS
10
101.562
20
-128.806
11
101.419
21
-128.521
0
LINE
8
BLACK
6
CONTINUOUS
10
101.419
20
-128.521
11
101.276
21
-127.949
0
LINE
8
BLACK
6
CONTINUOUS
10
101.276
20
-127.949
11
101.276
21
-127.235
0
LINE
8
BLACK
6
CONTINUOUS
10
101.276
20
-127.235
11
101.419
21
-126.664
0
LINE
8
BLACK
6
CONTINUOUS
10
101.419
20
-126.664
11
101.562
21
-126.378
0
LINE
8
BLACK
6
CONTINUOUS
10
101.562
20
-126.378
11
101.705
21
-126.235
0
LINE
8
BLACK
6
CONTINUOUS
10
101.705
20
-126.235
11
101.991
21
-126.092
0
LINE
8
BLACK
6
CONTINUOUS
10
105.848
20
-129.092
11
104.134
21
-129.092
0
LINE
8
BLACK
6
CONTINUOUS
10
104.991
20
-129.092
11
104.991
21
-126.092
0
LINE
8
BLACK
6
CONTINUOUS
10
104.991
20
-126.092
11
104.705
21
-126.521
0
LINE
8
BLACK
6
CONTINUOUS
10
104.705
20
-126.521
11
104.419
21
-126.806
0
LINE
8
BLACK
6
CONTINUOUS
10
104.419
20
-126.806
11
104.134
21
-126.949
0
LINE
8
BLACK
6
CONTINUOUS
10
108.419
20
-126.092
11
107.848
21
-126.092
0
LINE
8
BLACK
6
CONTINUOUS
10
107.848
20
-126.092
11
107.562
21
-126.235
0
LINE
8
BLACK
6
CONTINUOUS
10
107.562
20
-126.235
11
107.419
21
-126.378
0
LINE
8
BLACK
6
CONTINUOUS
10
107.419
20
-126.378
11
107.134
21
-126.806
0
LINE
8
BLACK
6
CONTINUOUS
10
107.134
20
-126.806
11
106.991
21
-127.378
0
LINE
8
BLACK
6
CONTINUOUS
10
106.991
20
-127.378
11
106.991
21
-128.521
0
LINE
8
BLACK
6
CONTINUOUS
10
106.991
20
-128.521
11
107.134
21
-128.806
0
LINE
8
BLACK
6
CONTINUOUS
10
107.134
20
-128.806
11
107.276
21
-128.949
0
LINE
8
BLACK
6
CONTINUOUS
10
107.276
20
-128.949
11
107.562
21
-129.092
0
LINE
8
BLACK
6
CONTINUOUS
10
107.562
20
-129.092
11
108.134
21
-129.092
0
LINE
8
BLACK
6
CONTINUOUS
10
108.134
20
-129.092
11
108.419
21
-128.949
0
LINE
8
BLACK
6
CONTINUOUS
10
108.419
20
-128.949
11
108.562
21
-128.806
0
LINE
8
BLACK
6
CONTINUOUS
10
108.562
20
-128.806
11
108.705
21
-128.521
0
LINE
8
BLACK
6
CONTINUOUS
10
108.705
20
-128.521
11
108.705
21
-127.806
0
LINE
8
BLACK
6
CONTINUOUS
10
108.705
20
-127.806
11
108.562
21
-127.521
0
LINE
8
BLACK
6
CONTINUOUS
10
108.562
20
-127.521
11
108.419
21
-127.378
0
LINE
8
BLACK
6
CONTINUOUS
10
108.419
20
-127.378
11
108.134
21
-127.235
0
LINE
8
BLACK
6
CONTINUOUS
10
108.134
20
-127.235
11
107.562
21
-127.235
0
LINE
8
BLACK
6
CONTINUOUS
10
107.562
20
-127.235
11
107.276
21
-127.378
0
LINE
8
BLACK
6
CONTINUOUS
10
107.276
20
-127.378
11
107.134
21
-127.521
0
LINE
8
BLACK
6
CONTINUOUS
10
107.134
20
-127.521
11
106.991
21
-127.806
0
LINE
8
BLACK
6
CONTINUOUS
10
109.848
20
-126.092
11
109.848
21
-126.664
0
LINE
8
BLACK
6
CONTINUOUS
10
110.991
20
-126.092
11
110.991
21
-126.664
0
LINE
8
BLACK
6
CONTINUOUS
10
115.419
20
-130.235
11
115.276
21
-130.092
0
LINE
8
BLACK
6
CONTINUOUS
10
115.276
20
-130.092
11
114.991
21
-129.664
0
LINE
8
BLACK
6
CONTINUOUS
10
114.991
20
-129.664
11
114.848
21
-129.378
0
LINE
8
BLACK
6
CONTINUOUS
10
114.848
20
-129.378
11
114.705
21
-128.949
0
LINE
8
BLACK
6
CONTINUOUS
10
114.705
20
-128.949
11
114.562
21
-128.235
0
LINE
8
BLACK
6
CONTINUOUS
10
114.562
20
-128.235
11
114.562
21
-127.664
0
LINE
8
BLACK
6
CONTINUOUS
10
114.562
20
-127.664
11
114.705
21
-126.949
0
LINE
8
BLACK
6
CONTINUOUS
10
114.705
20
-126.949
11
114.848
21
-126.521
0
LINE
8
BLACK
6
CONTINUOUS
10
114.848
20
-126.521
11
114.991
21
-126.235
0
LINE
8
BLACK
6
CONTINUOUS
10
114.991
20
-126.235
11
115.276
21
-125.806
0
LINE
8
BLACK
6
CONTINUOUS
10
115.276
20
-125.806
11
115.419
21
-125.664
0
LINE
8
BLACK
6
CONTINUOUS
10
118.134
20
-129.092
11
116.419
21
-129.092
0
LINE
8
BLACK
6
CONTINUOUS
10
117.276
20
-129.092
11
117.276
21
-126.092
0
LINE
8
BLACK
6
CONTINUOUS
10
117.276
20
-126.092
11
116.991
21
-126.521
0
LINE
8
BLACK
6
CONTINUOUS
10
116.991
20
-126.521
11
116.705
21
-126.806
0
LINE
8
BLACK
6
CONTINUOUS
10
116.705
20
-126.806
11
116.419
21
-126.949
0
LINE
8
BLACK
6
CONTINUOUS
10
119.276
20
-126.378
11
119.419
21
-126.235
0
LINE
8
BLACK
6
CONTINUOUS
10
119.419
20
-126.235
11
119.705
21
-126.092
0
LINE
8
BLACK
6
CONTINUOUS
10
119.705
20
-126.092
11
120.419
21
-126.092
0
LINE
8
BLACK
6
CONTINUOUS
10
120.419
20
-126.092
11
120.705
21
-126.235
0
LINE
8
BLACK
6
CONTINUOUS
10
120.705
20
-126.235
11
120.848
21
-126.378
0
LINE
8
BLACK
6
CONTINUOUS
10
120.848
20
-126.378
11
120.991
21
-126.664
0
LINE
8
BLACK
6
CONTINUOUS
10
120.991
20
-126.664
11
120.991
21
-126.949
0
LINE
8
BLACK
6
CONTINUOUS
10
120.991
20
-126.949
11
120.848
21
-127.378
0
LINE
8
BLACK
6
CONTINUOUS
10
120.848
20
-127.378
11
119.134
21
-129.092
0
LINE
8
BLACK
6
CONTINUOUS
10
119.134
20
-129.092
11
120.991
21
-129.092
0
LINE
8
BLACK
6
CONTINUOUS
10
124.562
20
-129.092
11
124.562
21
-126.092
0
LINE
8
BLACK
6
CONTINUOUS
10
125.848
20
-129.092
11
125.848
21
-127.521
0
LINE
8
BLACK
6
CONTINUOUS
10
125.848
20
-127.521
11
125.705
21
-127.235
0
LINE
8
BLACK
6
CONTINUOUS
10
125.705
20
-127.235
11
125.419
21
-127.092
0
LINE
8
BLACK
6
CONTINUOUS
10
125.419
20
-127.092
11
124.991
21
-127.092
0
LINE
8
BLACK
6
CONTINUOUS
10
124.991
20
-127.092
11
124.705
21
-127.235
0
LINE
8
BLACK
6
CONTINUOUS
10
124.705
20
-127.235
11
124.562
21
-127.378
0
LINE
8
BLACK
6
CONTINUOUS
10
127.705
20
-129.092
11
127.419
21
-128.949
0
LINE
8
BLACK
6
CONTINUOUS
10
127.419
20
-128.949
11
127.276
21
-128.806
0
LINE
8
BLACK
6
CONTINUOUS
10
127.276
20
-128.806
11
127.134
21
-128.521
0
LINE
8
BLACK
6
CONTINUOUS
10
127.134
20
-128.521
11
127.134
21
-127.664
0
LINE
8
BLACK
6
CONTINUOUS
10
127.134
20
-127.664
11
127.276
21
-127.378
0
LINE
8
BLACK
6
CONTINUOUS
10
127.276
20
-127.378
11
127.419
21
-127.235
0
LINE
8
BLACK
6
CONTINUOUS
10
127.419
20
-127.235
11
127.705
21
-127.092
0
LINE
8
BLACK
6
CONTINUOUS
10
127.705
20
-127.092
11
128.134
21
-127.092
0
LINE
8
BLACK
6
CONTINUOUS
10
128.134
20
-127.092
11
128.419
21
-127.235
0
LINE
8
BLACK
6
CONTINUOUS
10
128.419
20
-127.235
11
128.562
21
-127.378
0
LINE
8
BLACK
6
CONTINUOUS
10
128.562
20
-127.378
11
128.705
21
-127.664
0
LINE
8
BLACK
6
CONTINUOUS
10
128.705
20
-127.664
11
128.705
21
-128.521
0
LINE
8
BLACK
6
CONTINUOUS
10
128.705
20
-128.521
11
128.562
21
-128.806
0
LINE
8
BLACK
6
CONTINUOUS
10
128.562
20
-128.806
11
128.419
21
-128.949
0
LINE
8
BLACK
6
CONTINUOUS
10
128.419
20
-128.949
11
128.134
21
-129.092
0
LINE
8
BLACK
6
CONTINUOUS
10
128.134
20
-129.092
11
127.705
21
-129.092
0
LINE
8
BLACK
6
CONTINUOUS
10
130.419
20
-129.092
11
130.134
21
-128.949
0
LINE
8
BLACK
6
CONTINUOUS
10
130.134
20
-128.949
11
129.991
21
-128.664
0
LINE
8
BLACK
6
CONTINUOUS
10
129.991
20
-128.664
11
129.991
21
-126.092
0
LINE
8
BLACK
6
CONTINUOUS
10
132.705
20
-128.949
11
132.419
21
-129.092
0
LINE
8
BLACK
6
CONTINUOUS
10
132.419
20
-129.092
11
131.848
21
-129.092
0
LINE
8
BLACK
6
CONTINUOUS
10
131.848
20
-129.092
11
131.562
21
-128.949
0
LINE
8
BLACK
6
CONTINUOUS
10
131.562
20
-128.949
11
131.419
21
-128.664
0
LINE
8
BLACK
6
CONTINUOUS
10
131.419
20
-128.664
11
131.419
21
-127.521
0
LINE
8
BLACK
6
CONTINUOUS
10
131.419
20
-127.521
11
131.562
21
-127.235
0
LINE
8
BLACK
6
CONTINUOUS
10
131.562
20
-127.235
11
131.848
21
-127.092
0
LINE
8
BLACK
6
CONTINUOUS
10
131.848
20
-127.092
11
132.419
21
-127.092
0
LINE
8
BLACK
6
CONTINUOUS
10
132.419
20
-127.092
11
132.705
21
-127.235
0
LINE
8
BLACK
6
CONTINUOUS
10
132.705
20
-127.235
11
132.848
21
-127.521
0
LINE
8
BLACK
6
CONTINUOUS
10
132.848
20
-127.521
11
132.848
21
-127.806
0
LINE
8
BLACK
6
CONTINUOUS
10
132.848
20
-127.806
11
131.419
21
-128.092
0
LINE
8
BLACK
6
CONTINUOUS
10
133.991
20
-128.949
11
134.276
21
-129.092
0
LINE
8
BLACK
6
CONTINUOUS
10
134.276
20
-129.092
11
134.848
21
-129.092
0
LINE
8
BLACK
6
CONTINUOUS
10
134.848
20
-129.092
11
135.134
21
-128.949
0
LINE
8
BLACK
6
CONTINUOUS
10
135.134
20
-128.949
11
135.276
21
-128.664
0
LINE
8
BLACK
6
CONTINUOUS
10
135.276
20
-128.664
11
135.276
21
-128.521
0
LINE
8
BLACK
6
CONTINUOUS
10
135.276
20
-128.521
11
135.134
21
-128.235
0
LINE
8
BLACK
6
CONTINUOUS
10
135.134
20
-128.235
11
134.848
21
-128.092
0
LINE
8
BLACK
6
CONTINUOUS
10
134.848
20
-128.092
11
134.419
21
-128.092
0
LINE
8
BLACK
6
CONTINUOUS
10
134.419
20
-128.092
11
134.134
21
-127.949
0
LINE
8
BLACK
6
CONTINUOUS
10
134.134
20
-127.949
11
133.991
21
-127.664
0
LINE
8
BLACK
6
CONTINUOUS
10
133.991
20
-127.664
11
133.991
21
-127.521
0
LINE
8
BLACK
6
CONTINUOUS
10
133.991
20
-127.521
11
134.134
21
-127.235
0
LINE
8
BLACK
6
CONTINUOUS
10
134.134
20
-127.235
11
134.419
21
-127.092
0
LINE
8
BLACK
6
CONTINUOUS
10
134.419
20
-127.092
11
134.848
21
-127.092
0
LINE
8
BLACK
6
CONTINUOUS
10
134.848
20
-127.092
11
135.134
21
-127.235
0
LINE
8
BLACK
6
CONTINUOUS
10
136.276
20
-130.235
11
136.419
21
-130.092
0
LINE
8
BLACK
6
CONTINUOUS
10
136.419
20
-130.092
11
136.705
21
-129.664
0
LINE
8
BLACK
6
CONTINUOUS
10
136.705
20
-129.664
11
136.848
21
-129.378
0
LINE
8
BLACK
6
CONTINUOUS
10
136.848
20
-129.378
11
136.991
21
-128.949
0
LINE
8
BLACK
6
CONTINUOUS
10
136.991
20
-128.949
11
137.134
21
-128.235
0
LINE
8
BLACK
6
CONTINUOUS
10
137.134
20
-128.235
11
137.134
21
-127.664
0
LINE
8
BLACK
6
CONTINUOUS
10
137.134
20
-127.664
11
136.991
21
-126.949
0
LINE
8
BLACK
6
CONTINUOUS
10
136.991
20
-126.949
11
136.848
21
-126.521
0
LINE
8
BLACK
6
CONTINUOUS
10
136.848
20
-126.521
11
136.705
21
-126.235
0
LINE
8
BLACK
6
CONTINUOUS
10
136.705
20
-126.235
11
136.419
21
-125.806
0
LINE
8
BLACK
6
CONTINUOUS
10
136.419
20
-125.806
11
136.276
21
-125.664
0
CIRCLE
8
BLACK
10
68.18
20
-131.695
40
0.375
0
LINE
8
BLACK
6
CONTINUOUS
10
71.9907
20
-130.052
11
72.2764
21
-130.052
0
LINE
8
BLACK
6
CONTINUOUS
10
72.2764
20
-130.052
11
72.5621
21
-130.195
0
LINE
8
BLACK
6
CONTINUOUS
10
72.5621
20
-130.195
11
72.705
21
-130.338
0
LINE
8
BLACK
6
CONTINUOUS
10
72.705
20
-130.338
11
72.8479
21
-130.624
0
LINE
8
BLACK
6
CONTINUOUS
10
72.8479
20
-130.624
11
72.9907
21
-131.195
0
LINE
8
BLACK
6
CONTINUOUS
10
72.9907
20
-131.195
11
72.9907
21
-131.909
0
LINE
8
BLACK
6
CONTINUOUS
10
72.9907
20
-131.909
11
72.8479
21
-132.481
0
LINE
8
BLACK
6
CONTINUOUS
10
72.8479
20
-132.481
11
72.705
21
-132.766
0
LINE
8
BLACK
6
CONTINUOUS
10
72.705
20
-132.766
11
72.5621
21
-132.909
0
LINE
8
BLACK
6
CONTINUOUS
10
72.5621
20
-132.909
11
72.2764
21
-133.052
0
LINE
8
BLACK
6
CONTINUOUS
10
72.2764
20
-133.052
11
71.9907
21
-133.052
0
LINE
8
BLACK
6
CONTINUOUS
10
71.9907
20
-133.052
11
71.705
21
-132.909
0
LINE
8
BLACK
6
CONTINUOUS
10
71.705
20
-132.909
11
71.5621
21
-132.766
0
LINE
8
BLACK
6
CONTINUOUS
10
71.5621
20
-132.766
11
71.4193
21
-132.481
0
LINE
8
BLACK
6
CONTINUOUS
10
71.4193
20
-132.481
11
71.2764
21
-131.909
0
LINE
8
BLACK
6
CONTINUOUS
10
71.2764
20
-131.909
11
71.2764
21
-131.195
0
LINE
8
BLACK
6
CONTINUOUS
10
71.2764
20
-131.195
11
71.4193
21
-130.624
0
LINE
8
BLACK
6
CONTINUOUS
10
71.4193
20
-130.624
11
71.5621
21
-130.338
0
LINE
8
BLACK
6
CONTINUOUS
10
71.5621
20
-130.338
11
71.705
21
-130.195
0
LINE
8
BLACK
6
CONTINUOUS
10
71.705
20
-130.195
11
71.9907
21
-130.052
0
LINE
8
BLACK
6
CONTINUOUS
10
74.2764
20
-132.766
11
74.4193
21
-132.909
0
LINE
8
BLACK
6
CONTINUOUS
10
74.4193
20
-132.909
11
74.2764
21
-133.052
0
LINE
8
BLACK
6
CONTINUOUS
10
74.2764
20
-133.052
11
74.1336
21
-132.909
0
LINE
8
BLACK
6
CONTINUOUS
10
74.1336
20
-132.909
11
74.2764
21
-132.766
0
LINE
8
BLACK
6
CONTINUOUS
10
74.2764
20
-132.766
11
74.2764
21
-133.052
0
LINE
8
BLACK
6
CONTINUOUS
10
75.4193
20
-130.052
11
77.4193
21
-130.052
0
LINE
8
BLACK
6
CONTINUOUS
10
77.4193
20
-130.052
11
76.1336
21
-133.052
0
LINE
8
BLACK
6
CONTINUOUS
10
79.9907
20
-130.052
11
78.5621
21
-130.052
0
LINE
8
BLACK
6
CONTINUOUS
10
78.5621
20
-130.052
11
78.4193
21
-131.481
0
LINE
8
BLACK
6
CONTINUOUS
10
78.4193
20
-131.481
11
78.5621
21
-131.338
0
LINE
8
BLACK
6
CONTINUOUS
10
78.5621
20
-131.338
11
78.8479
21
-131.195
0
LINE
8
BLACK
6
CONTINUOUS
10
78.8479
20
-131.195
11
79.5621
21
-131.195
0
LINE
8
BLACK
6
CONTINUOUS
10
79.5621
20
-131.195
11
79.8479
21
-131.338
0
LINE
8
BLACK
6
CONTINUOUS
10
79.8479
20
-131.338
11
79.9907
21
-131.481
0
LINE
8
BLACK
6
CONTINUOUS
10
79.9907
20
-131.481
11
80.1336
21
-131.766
0
LINE
8
BLACK
6
CONTINUOUS
10
80.1336
20
-131.766
11
80.1336
21
-132.481
0
LINE
8
BLACK
6
CONTINUOUS
10
80.1336
20
-132.481
11
79.9907
21
-132.766
0
LINE
8
BLACK
6
CONTINUOUS
10
79.9907
20
-132.766
11
79.8479
21
-132.909
0
LINE
8
BLACK
6
CONTINUOUS
10
79.8479
20
-132.909
11
79.5621
21
-133.052
0
LINE
8
BLACK
6
CONTINUOUS
10
79.5621
20
-133.052
11
78.8479
21
-133.052
0
LINE
8
BLACK
6
CONTINUOUS
10
78.8479
20
-133.052
11
78.5621
21
-132.909
0
LINE
8
BLACK
6
CONTINUOUS
10
78.5621
20
-132.909
11
78.4193
21
-132.766
0
LINE
8
BLACK
6
CONTINUOUS
10
81.4193
20
-133.052
11
81.4193
21
-131.052
0
LINE
8
BLACK
6
CONTINUOUS
10
81.4193
20
-131.338
11
81.5621
21
-131.195
0
LINE
8
BLACK
6
CONTINUOUS
10
81.5621
20
-131.195
11
81.8479
21
-131.052
0
LINE
8
BLACK
6
CONTINUOUS
10
81.8479
20
-131.052
11
82.2764
21
-131.052
0
LINE
8
BLACK
6
CONTINUOUS
10
82.2764
20
-131.052
11
82.5621
21
-131.195
0
LINE
8
BLACK
6
CONTINUOUS
10
82.5621
20
-131.195
11
82.705
21
-131.481
0
LINE
8
BLACK
6
CONTINUOUS
10
82.705
20
-131.481
11
82.705
21
-133.052
0
LINE
8
BLACK
6
CONTINUOUS
10
82.705
20
-131.481
11
82.8479
21
-131.195
0
LINE
8
BLACK
6
CONTINUOUS
10
82.8479
20
-131.195
11
83.1336
21
-131.052
0
LINE
8
BLACK
6
CONTINUOUS
10
83.1336
20
-131.052
11
83.5621
21
-131.052
0
LINE
8
BLACK
6
CONTINUOUS
10
83.5621
20
-131.052
11
83.8479
21
-131.195
0
LINE
8
BLACK
6
CONTINUOUS
10
83.8479
20
-131.195
11
83.9907
21
-131.481
0
LINE
8
BLACK
6
CONTINUOUS
10
83.9907
20
-131.481
11
83.9907
21
-133.052
0
LINE
8
BLACK
6
CONTINUOUS
10
85.4193
20
-133.052
11
85.4193
21
-131.052
0
LINE
8
BLACK
6
CONTINUOUS
10
85.4193
20
-131.338
11
85.5621
21
-131.195
0
LINE
8
BLACK
6
CONTINUOUS
10
85.5621
20
-131.195
11
85.8479
21
-131.052
0
LINE
8
BLACK
6
CONTINUOUS
10
85.8479
20
-131.052
11
86.2764
21
-131.052
0
LINE
8
BLACK
6
CONTINUOUS
10
86.2764
20
-131.052
11
86.5621
21
-131.195
0
LINE
8
BLACK
6
CONTINUOUS
10
86.5621
20
-131.195
11
86.705
21
-131.481
0
LINE
8
BLACK
6
CONTINUOUS
10
86.705
20
-131.481
11
86.705
21
-133.052
0
LINE
8
BLACK
6
CONTINUOUS
10
86.705
20
-131.481
11
86.8479
21
-131.195
0
LINE
8
BLACK
6
CONTINUOUS
10
86.8479
20
-131.195
11
87.1336
21
-131.052
0
LINE
8
BLACK
6
CONTINUOUS
10
87.1336
20
-131.052
11
87.5621
21
-131.052
0
LINE
8
BLACK
6
CONTINUOUS
10
87.5621
20
-131.052
11
87.8479
21
-131.195
0
LINE
8
BLACK
6
CONTINUOUS
10
87.8479
20
-131.195
11
87.9907
21
-131.481
0
LINE
8
BLACK
6
CONTINUOUS
10
87.9907
20
-131.481
11
87.9907
21
-133.052
0
LINE
8
BLACK
6
CONTINUOUS
10
93.8479
20
-129.909
11
91.2764
21
-133.766
0
LINE
8
BLACK
6
CONTINUOUS
10
97.705
20
-130.052
11
97.9907
21
-130.052
0
LINE
8
BLACK
6
CONTINUOUS
10
97.9907
20
-130.052
11
98.2764
21
-130.195
0
LINE
8
BLACK
6
CONTINUOUS
10
98.2764
20
-130.195
11
98.4193
21
-130.338
0
LINE
8
BLACK
6
CONTINUOUS
10
98.4193
20
-130.338
11
98.5621
21
-130.624
0
LINE
8
BLACK
6
CONTINUOUS
10
98.5621
20
-130.624
11
98.705
21
-131.195
0
LINE
8
BLACK
6
CONTINUOUS
10
98.705
20
-131.195
11
98.705
21
-131.909
0
LINE
8
BLACK
6
CONTINUOUS
10
98.705
20
-131.909
11
98.5621
21
-132.481
0
LINE
8
BLACK
6
CONTINUOUS
10
98.5621
20
-132.481
11
98.4193
21
-132.766
0
LINE
8
BLACK
6
CONTINUOUS
10
98.4193
20
-132.766
11
98.2764
21
-132.909
0
LINE
8
BLACK
6
CONTINUOUS
10
98.2764
20
-132.909
11
97.9907
21
-133.052
0
LINE
8
BLACK
6
CONTINUOUS
10
97.9907
20
-133.052
11
97.705
21
-133.052
0
LINE
8
BLACK
6
CONTINUOUS
10
97.705
20
-133.052
11
97.4193
21
-132.909
0
LINE
8
BLACK
6
CONTINUOUS
10
97.4193
20
-132.909
11
97.2764
21
-132.766
0
LINE
8
BLACK
6
CONTINUOUS
10
97.2764
20
-132.766
11
97.1336
21
-132.481
0
LINE
8
BLACK
6
CONTINUOUS
10
97.1336
20
-132.481
11
96.9907
21
-131.909
0
LINE
8
BLACK
6
CONTINUOUS
10
96.9907
20
-131.909
11
96.9907
21
-131.195
0
LINE
8
BLACK
6
CONTINUOUS
10
96.9907
20
-131.195
11
97.1336
21
-130.624
0
LINE
8
BLACK
6
CONTINUOUS
10
97.1336
20
-130.624
11
97.2764
21
-130.338
0
LINE
8
BLACK
6
CONTINUOUS
10
97.2764
20
-130.338
11
97.4193
21
-130.195
0
LINE
8
BLACK
6
CONTINUOUS
10
97.4193
20
-130.195
11
97.705
21
-130.052
0
LINE
8
BLACK
6
CONTINUOUS
10
99.9907
20
-132.766
11
100.134
21
-132.909
0
LINE
8
BLACK
6
CONTINUOUS
10
100.134
20
-132.909
11
99.9907
21
-133.052
0
LINE
8
BLACK
6
CONTINUOUS
10
99.9907
20
-133.052
11
99.8479
21
-132.909
0
LINE
8
BLACK
6
CONTINUOUS
10
99.8479
20
-132.909
11
99.9907
21
-132.766
0
LINE
8
BLACK
6
CONTINUOUS
10
99.9907
20
-132.766
11
99.9907
21
-133.052
0
LINE
8
BLACK
6
CONTINUOUS
10
101.991
20
-130.052
11
102.276
21
-130.052
0
LINE
8
BLACK
6
CONTINUOUS
10
102.276
20
-130.052
11
102.562
21
-130.195
0
LINE
8
BLACK
6
CONTINUOUS
10
102.562
20
-130.195
11
102.705
21
-130.338
0
LINE
8
BLACK
6
CONTINUOUS
10
102.705
20
-130.338
11
102.848
21
-130.624
0
LINE
8
BLACK
6
CONTINUOUS
10
102.848
20
-130.624
11
102.991
21
-131.195
0
LINE
8
BLACK
6
CONTINUOUS
10
102.991
20
-131.195
11
102.991
21
-131.909
0
LINE
8
BLACK
6
CONTINUOUS
10
102.991
20
-131.909
11
102.848
21
-132.481
0
LINE
8
BLACK
6
CONTINUOUS
10
102.848
20
-132.481
11
102.705
21
-132.766
0
LINE
8
BLACK
6
CONTINUOUS
10
102.705
20
-132.766
11
102.562
21
-132.909
0
LINE
8
BLACK
6
CONTINUOUS
10
102.562
20
-132.909
11
102.276
21
-133.052
0
LINE
8
BLACK
6
CONTINUOUS
10
102.276
20
-133.052
11
101.991
21
-133.052
0
LINE
8
BLACK
6
CONTINUOUS
10
101.991
20
-133.052
11
101.705
21
-132.909
0
LINE
8
BLACK
6
CONTINUOUS
10
101.705
20
-132.909
11
101.562
21
-132.766
0
LINE
8
BLACK
6
CONTINUOUS
10
101.562
20
-132.766
11
101.419
21
-132.481
0
LINE
8
BLACK
6
CONTINUOUS
10
101.419
20
-132.481
11
101.276
21
-131.909
0
LINE
8
BLACK
6
CONTINUOUS
10
101.276
20
-131.909
11
101.276
21
-131.195
0
LINE
8
BLACK
6
CONTINUOUS
10
101.276
20
-131.195
11
101.419
21
-130.624
0
LINE
8
BLACK
6
CONTINUOUS
10
101.419
20
-130.624
11
101.562
21
-130.338
0
LINE
8
BLACK
6
CONTINUOUS
10
101.562
20
-130.338
11
101.705
21
-130.195
0
LINE
8
BLACK
6
CONTINUOUS
10
101.705
20
-130.195
11
101.991
21
-130.052
0
LINE
8
BLACK
6
CONTINUOUS
10
103.991
20
-130.052
11
105.848
21
-130.052
0
LINE
8
BLACK
6
CONTINUOUS
10
105.848
20
-130.052
11
104.848
21
-131.195
0
LINE
8
BLACK
6
CONTINUOUS
10
104.848
20
-131.195
11
105.276
21
-131.195
0
LINE
8
BLACK
6
CONTINUOUS
10
105.276
20
-131.195
11
105.562
21
-131.338
0
LINE
8
BLACK
6
CONTINUOUS
10
105.562
20
-131.338
11
105.705
21
-131.481
0
LINE
8
BLACK
6
CONTINUOUS
10
105.705
20
-131.481
11
105.848
21
-131.766
0
LINE
8
BLACK
6
CONTINUOUS
10
105.848
20
-131.766
11
105.848
21
-132.481
0
LINE
8
BLACK
6
CONTINUOUS
10
105.848
20
-132.481
11
105.705
21
-132.766
0
LINE
8
BLACK
6
CONTINUOUS
10
105.705
20
-132.766
11
105.562
21
-132.909
0
LINE
8
BLACK
6
CONTINUOUS
10
105.562
20
-132.909
11
105.276
21
-133.052
0
LINE
8
BLACK
6
CONTINUOUS
10
105.276
20
-133.052
11
104.419
21
-133.052
0
LINE
8
BLACK
6
CONTINUOUS
10
104.419
20
-133.052
11
104.134
21
-132.909
0
LINE
8
BLACK
6
CONTINUOUS
10
104.134
20
-132.909
11
103.991
21
-132.766
0
LINE
8
BLACK
6
CONTINUOUS
10
107.705
20
-130.052
11
107.991
21
-130.052
0
LINE
8
BLACK
6
CONTINUOUS
10
107.991
20
-130.052
11
108.276
21
-130.195
0
LINE
8
BLACK
6
CONTINUOUS
10
108.276
20
-130.195
11
108.419
21
-130.338
0
LINE
8
BLACK
6
CONTINUOUS
10
108.419
20
-130.338
11
108.562
21
-130.624
0
LINE
8
BLACK
6
CONTINUOUS
10
108.562
20
-130.624
11
108.705
21
-131.195
0
LINE
8
BLACK
6
CONTINUOUS
10
108.705
20
-131.195
11
108.705
21
-131.909
0
LINE
8
BLACK
6
CONTINUOUS
10
108.705
20
-131.909
11
108.562
21
-132.481
0
LINE
8
BLACK
6
CONTINUOUS
10
108.562
20
-132.481
11
108.419
21
-132.766
0
LINE
8
BLACK
6
CONTINUOUS
10
108.419
20
-132.766
11
108.276
21
-132.909
0
LINE
8
BLACK
6
CONTINUOUS
10
108.276
20
-132.909
11
107.991
21
-133.052
0
LINE
8
BLACK
6
CONTINUOUS
10
107.991
20
-133.052
11
107.705
21
-133.052
0
LINE
8
BLACK
6
CONTINUOUS
10
107.705
20
-133.052
11
107.419
21
-132.909
0
LINE
8
BLACK
6
CONTINUOUS
10
107.419
20
-132.909
11
107.276
21
-132.766
0
LINE
8
BLACK
6
CONTINUOUS
10
107.276
20
-132.766
11
107.134
21
-132.481
0
LINE
8
BLACK
6
CONTINUOUS
10
107.134
20
-132.481
11
106.991
21
-131.909
0
LINE
8
BLACK
6
CONTINUOUS
10
106.991
20
-131.909
11
106.991
21
-131.195
0
LINE
8
BLACK
6
CONTINUOUS
10
106.991
20
-131.195
11
107.134
21
-130.624
0
LINE
8
BLACK
6
CONTINUOUS
10
107.134
20
-130.624
11
107.276
21
-130.338
0
LINE
8
BLACK
6
CONTINUOUS
10
107.276
20
-130.338
11
107.419
21
-130.195
0
LINE
8
BLACK
6
CONTINUOUS
10
107.419
20
-130.195
11
107.705
21
-130.052
0
LINE
8
BLACK
6
CONTINUOUS
10
109.848
20
-130.052
11
109.848
21
-130.624
0
LINE
8
BLACK
6
CONTINUOUS
10
110.991
20
-130.052
11
110.991
21
-130.624
0
LINE
8
BLACK
6
CONTINUOUS
10
115.419
20
-134.195
11
115.276
21
-134.052
0
LINE
8
BLACK
6
CONTINUOUS
10
115.276
20
-134.052
11
114.991
21
-133.624
0
LINE
8
BLACK
6
CONTINUOUS
10
114.991
20
-133.624
11
114.848
21
-133.338
0
LINE
8
BLACK
6
CONTINUOUS
10
114.848
20
-133.338
11
114.705
21
-132.909
0
LINE
8
BLACK
6
CONTINUOUS
10
114.705
20
-132.909
11
114.562
21
-132.195
0
LINE
8
BLACK
6
CONTINUOUS
10
114.562
20
-132.195
11
114.562
21
-131.624
0
LINE
8
BLACK
6
CONTINUOUS
10
114.562
20
-131.624
11
114.705
21
-130.909
0
LINE
8
BLACK
6
CONTINUOUS
10
114.705
20
-130.909
11
114.848
21
-130.481
0
LINE
8
BLACK
6
CONTINUOUS
10
114.848
20
-130.481
11
114.991
21
-130.195
0
LINE
8
BLACK
6
CONTINUOUS
10
114.991
20
-130.195
11
115.276
21
-129.766
0
LINE
8
BLACK
6
CONTINUOUS
10
115.276
20
-129.766
11
115.419
21
-129.624
0
LINE
8
BLACK
6
CONTINUOUS
10
118.134
20
-133.052
11
116.419
21
-133.052
0
LINE
8
BLACK
6
CONTINUOUS
10
117.276
20
-133.052
11
117.276
21
-130.052
0
LINE
8
BLACK
6
CONTINUOUS
10
117.276
20
-130.052
11
116.991
21
-130.481
0
LINE
8
BLACK
6
CONTINUOUS
10
116.991
20
-130.481
11
116.705
21
-130.766
0
LINE
8
BLACK
6
CONTINUOUS
10
116.705
20
-130.766
11
116.419
21
-130.909
0
LINE
8
BLACK
6
CONTINUOUS
10
120.848
20
-130.052
11
119.419
21
-130.052
0
LINE
8
BLACK
6
CONTINUOUS
10
119.419
20
-130.052
11
119.276
21
-131.481
0
LINE
8
BLACK
6
CONTINUOUS
10
119.276
20
-131.481
11
119.419
21
-131.338
0
LINE
8
BLACK
6
CONTINUOUS
10
119.419
20
-131.338
11
119.705
21
-131.195
0
LINE
8
BLACK
6
CONTINUOUS
10
119.705
20
-131.195
11
120.419
21
-131.195
0
LINE
8
BLACK
6
CONTINUOUS
10
120.419
20
-131.195
11
120.705
21
-131.338
0
LINE
8
BLACK
6
CONTINUOUS
10
120.705
20
-131.338
11
120.848
21
-131.481
0
LINE
8
BLACK
6
CONTINUOUS
10
120.848
20
-131.481
11
120.991
21
-131.766
0
LINE
8
BLACK
6
CONTINUOUS
10
120.991
20
-131.766
11
120.991
21
-132.481
0
LINE
8
BLACK
6
CONTINUOUS
10
120.991
20
-132.481
11
120.848
21
-132.766
0
LINE
8
BLACK
6
CONTINUOUS
10
120.848
20
-132.766
11
120.705
21
-132.909
0
LINE
8
BLACK
6
CONTINUOUS
10
120.705
20
-132.909
11
120.419
21
-133.052
0
LINE
8
BLACK
6
CONTINUOUS
10
120.419
20
-133.052
11
119.705
21
-133.052
0
LINE
8
BLACK
6
CONTINUOUS
10
119.705
20
-133.052
11
119.419
21
-132.909
0
LINE
8
BLACK
6
CONTINUOUS
10
119.419
20
-132.909
11
119.276
21
-132.766
0
LINE
8
BLACK
6
CONTINUOUS
10
124.562
20
-133.052
11
124.562
21
-130.052
0
LINE
8
BLACK
6
CONTINUOUS
10
125.848
20
-133.052
11
125.848
21
-131.481
0
LINE
8
BLACK
6
CONTINUOUS
10
125.848
20
-131.481
11
125.705
21
-131.195
0
LINE
8
BLACK
6
CONTINUOUS
10
125.705
20
-131.195
11
125.419
21
-131.052
0
LINE
8
BLACK
6
CONTINUOUS
10
125.419
20
-131.052
11
124.991
21
-131.052
0
LINE
8
BLACK
6
CONTINUOUS
10
124.991
20
-131.052
11
124.705
21
-131.195
0
LINE
8
BLACK
6
CONTINUOUS
10
124.705
20
-131.195
11
124.562
21
-131.338
0
LINE
8
BLACK
6
CONTINUOUS
10
127.705
20
-133.052
11
127.419
21
-132.909
0
LINE
8
BLACK
6
CONTINUOUS
10
127.419
20
-132.909
11
127.276
21
-132.766
0
LINE
8
BLACK
6
CONTINUOUS
10
127.276
20
-132.766
11
127.134
21
-132.481
0
LINE
8
BLACK
6
CONTINUOUS
10
127.134
20
-132.481
11
127.134
21
-131.624
0
LINE
8
BLACK
6
CONTINUOUS
10
127.134
20
-131.624
11
127.276
21
-131.338
0
LINE
8
BLACK
6
CONTINUOUS
10
127.276
20
-131.338
11
127.419
21
-131.195
0
LINE
8
BLACK
6
CONTINUOUS
10
127.419
20
-131.195
11
127.705
21
-131.052
0
LINE
8
BLACK
6
CONTINUOUS
10
127.705
20
-131.052
11
128.134
21
-131.052
0
LINE
8
BLACK
6
CONTINUOUS
10
128.134
20
-131.052
11
128.419
21
-131.195
0
LINE
8
BLACK
6
CONTINUOUS
10
128.419
20
-131.195
11
128.562
21
-131.338
0
LINE
8
BLACK
6
CONTINUOUS
10
128.562
20
-131.338
11
128.705
21
-131.624
0
LINE
8
BLACK
6
CONTINUOUS
10
128.705
20
-131.624
11
128.705
21
-132.481
0
LINE
8
BLACK
6
CONTINUOUS
10
128.705
20
-132.481
11
128.562
21
-132.766
0
LINE
8
BLACK
6
CONTINUOUS
10
128.562
20
-132.766
11
128.419
21
-132.909
0
LINE
8
BLACK
6
CONTINUOUS
10
128.419
20
-132.909
11
128.134
21
-133.052
0
LINE
8
BLACK
6
CONTINUOUS
10
128.134
20
-133.052
11
127.705
21
-133.052
0
LINE
8
BLACK
6
CONTINUOUS
10
130.419
20
-133.052
11
130.134
21
-132.909
0
LINE
8
BLACK
6
CONTINUOUS
10
130.134
20
-132.909
11
129.991
21
-132.624
0
LINE
8
BLACK
6
CONTINUOUS
10
129.991
20
-132.624
11
129.991
21
-130.052
0
LINE
8
BLACK
6
CONTINUOUS
10
132.705
20
-132.909
11
132.419
21
-133.052
0
LINE
8
BLACK
6
CONTINUOUS
10
132.419
20
-133.052
11
131.848
21
-133.052
0
LINE
8
BLACK
6
CONTINUOUS
10
131.848
20
-133.052
11
131.562
21
-132.909
0
LINE
8
BLACK
6
CONTINUOUS
10
131.562
20
-132.909
11
131.419
21
-132.624
0
LINE
8
BLACK
6
CONTINUOUS
10
131.419
20
-132.624
11
131.419
21
-131.481
0
LINE
8
BLACK
6
CONTINUOUS
10
131.419
20
-131.481
11
131.562
21
-131.195
0
LINE
8
BLACK
6
CONTINUOUS
10
131.562
20
-131.195
11
131.848
21
-131.052
0
LINE
8
BLACK
6
CONTINUOUS
10
131.848
20
-131.052
11
132.419
21
-131.052
0
LINE
8
BLACK
6
CONTINUOUS
10
132.419
20
-131.052
11
132.705
21
-131.195
0
LINE
8
BLACK
6
CONTINUOUS
10
132.705
20
-131.195
11
132.848
21
-131.481
0
LINE
8
BLACK
6
CONTINUOUS
10
132.848
20
-131.481
11
132.848
21
-131.766
0
LINE
8
BLACK
6
CONTINUOUS
10
132.848
20
-131.766
11
131.419
21
-132.052
0
LINE
8
BLACK
6
CONTINUOUS
10
133.991
20
-132.909
11
134.276
21
-133.052
0
LINE
8
BLACK
6
CONTINUOUS
10
134.276
20
-133.052
11
134.848
21
-133.052
0
LINE
8
BLACK
6
CONTINUOUS
10
134.848
20
-133.052
11
135.134
21
-132.909
0
LINE
8
BLACK
6
CONTINUOUS
10
135.134
20
-132.909
11
135.276
21
-132.624
0
LINE
8
BLACK
6
CONTINUOUS
10
135.276
20
-132.624
11
135.276
21
-132.481
0
LINE
8
BLACK
6
CONTINUOUS
10
135.276
20
-132.481
11
135.134
21
-132.195
0
LINE
8
BLACK
6
CONTINUOUS
10
135.134
20
-132.195
11
134.848
21
-132.052
0
LINE
8
BLACK
6
CONTINUOUS
10
134.848
20
-132.052
11
134.419
21
-132.052
0
LINE
8
BLACK
6
CONTINUOUS
10
134.419
20
-132.052
11
134.134
21
-131.909
0
LINE
8
BLACK
6
CONTINUOUS
10
134.134
20
-131.909
11
133.991
21
-131.624
0
LINE
8
BLACK
6
CONTINUOUS
10
133.991
20
-131.624
11
133.991
21
-131.481
0
LINE
8
BLACK
6
CONTINUOUS
10
133.991
20
-131.481
11
134.134
21
-131.195
0
LINE
8
BLACK
6
CONTINUOUS
10
134.134
20
-131.195
11
134.419
21
-131.052
0
LINE
8
BLACK
6
CONTINUOUS
10
134.419
20
-131.052
11
134.848
21
-131.052
0
LINE
8
BLACK
6
CONTINUOUS
10
134.848
20
-131.052
11
135.134
21
-131.195
0
LINE
8
BLACK
6
CONTINUOUS
10
136.276
20
-134.195
11
136.419
21
-134.052
0
LINE
8
BLACK
6
CONTINUOUS
10
136.419
20
-134.052
11
136.705
21
-133.624
0
LINE
8
BLACK
6
CONTINUOUS
10
136.705
20
-133.624
11
136.848
21
-133.338
0
LINE
8
BLACK
6
CONTINUOUS
10
136.848
20
-133.338
11
136.991
21
-132.909
0
LINE
8
BLACK
6
CONTINUOUS
10
136.991
20
-132.909
11
137.134
21
-132.195
0
LINE
8
BLACK
6
CONTINUOUS
10
137.134
20
-132.195
11
137.134
21
-131.624
0
LINE
8
BLACK
6
CONTINUOUS
10
137.134
20
-131.624
11
136.991
21
-130.909
0
LINE
8
BLACK
6
CONTINUOUS
10
136.991
20
-130.909
11
136.848
21
-130.481
0
LINE
8
BLACK
6
CONTINUOUS
10
136.848
20
-130.481
11
136.705
21
-130.195
0
LINE
8
BLACK
6
CONTINUOUS
10
136.705
20
-130.195
11
136.419
21
-129.766
0
LINE
8
BLACK
6
CONTINUOUS
10
136.419
20
-129.766
11
136.276
21
-129.624
0
LINE
8
BLACK
6
CONTINUOUS
10
68.155
20
-135.255
11
68.155
21
-136.055
0
LINE
8
BLACK
6
CONTINUOUS
10
67.755
20
-135.655
11
68.555
21
-135.655
0
LINE
8
BLACK
6
CONTINUOUS
10
71.9907
20
-134.012
11
72.2764
21
-134.012
0
LINE
8
BLACK
6
CONTINUOUS
10
72.2764
20
-134.012
11
72.5621
21
-134.155
0
LINE
8
BLACK
6
CONTINUOUS
10
72.5621
20
-134.155
11
72.705
21
-134.298
0
LINE
8
BLACK
6
CONTINUOUS
10
72.705
20
-134.298
11
72.8479
21
-134.584
0
LINE
8
BLACK
6
CONTINUOUS
10
72.8479
20
-134.584
11
72.9907
21
-135.155
0
LINE
8
BLACK
6
CONTINUOUS
10
72.9907
20
-135.155
11
72.9907
21
-135.869
0
LINE
8
BLACK
6
CONTINUOUS
10
72.9907
20
-135.869
11
72.8479
21
-136.441
0
LINE
8
BLACK
6
CONTINUOUS
10
72.8479
20
-136.441
11
72.705
21
-136.726
0
LINE
8
BLACK
6
CONTINUOUS
10
72.705
20
-136.726
11
72.5621
21
-136.869
0
LINE
8
BLACK
6
CONTINUOUS
10
72.5621
20
-136.869
11
72.2764
21
-137.012
0
LINE
8
BLACK
6
CONTINUOUS
10
72.2764
20
-137.012
11
71.9907
21
-137.012
0
LINE
8
BLACK
6
CONTINUOUS
10
71.9907
20
-137.012
11
71.705
21
-136.869
0
LINE
8
BLACK
6
CONTINUOUS
10
71.705
20
-136.869
11
71.5621
21
-136.726
0
LINE
8
BLACK
6
CONTINUOUS
10
71.5621
20
-136.726
11
71.4193
21
-136.441
0
LINE
8
BLACK
6
CONTINUOUS
10
71.4193
20
-136.441
11
71.2764
21
-135.869
0
LINE
8
BLACK
6
CONTINUOUS
10
71.2764
20
-135.869
11
71.2764
21
-135.155
0
LINE
8
BLACK
6
CONTINUOUS
10
71.2764
20
-135.155
11
71.4193
21
-134.584
0
LINE
8
BLACK
6
CONTINUOUS
10
71.4193
20
-134.584
11
71.5621
21
-134.298
0
LINE
8
BLACK
6
CONTINUOUS
10
71.5621
20
-134.298
11
71.705
21
-134.155
0
LINE
8
BLACK
6
CONTINUOUS
10
71.705
20
-134.155
11
71.9907
21
-134.012
0
LINE
8
BLACK
6
CONTINUOUS
10
74.2764
20
-136.726
11
74.4193
21
-136.869
0
LINE
8
BLACK
6
CONTINUOUS
10
74.4193
20
-136.869
11
74.2764
21
-137.012
0
LINE
8
BLACK
6
CONTINUOUS
10
74.2764
20
-137.012
11
74.1336
21
-136.869
0
LINE
8
BLACK
6
CONTINUOUS
10
74.1336
20
-136.869
11
74.2764
21
-136.726
0
LINE
8
BLACK
6
CONTINUOUS
10
74.2764
20
-136.726
11
74.2764
21
-137.012
0
LINE
8
BLACK
6
CONTINUOUS
10
76.1336
20
-135.298
11
75.8479
21
-135.155
0
LINE
8
BLACK
6
CONTINUOUS
10
75.8479
20
-135.155
11
75.705
21
-135.012
0
LINE
8
BLACK
6
CONTINUOUS
10
75.705
20
-135.012
11
75.5621
21
-134.726
0
LINE
8
BLACK
6
CONTINUOUS
10
75.5621
20
-134.726
11
75.5621
21
-134.584
0
LINE
8
BLACK
6
CONTINUOUS
10
75.5621
20
-134.584
11
75.705
21
-134.298
0
LINE
8
BLACK
6
CONTINUOUS
10
75.705
20
-134.298
11
75.8479
21
-134.155
0
LINE
8
BLACK
6
CONTINUOUS
10
75.8479
20
-134.155
11
76.1336
21
-134.012
0
LINE
8
BLACK
6
CONTINUOUS
10
76.1336
20
-134.012
11
76.705
21
-134.012
0
LINE
8
BLACK
6
CONTINUOUS
10
76.705
20
-134.012
11
76.9907
21
-134.155
0
LINE
8
BLACK
6
CONTINUOUS
10
76.9907
20
-134.155
11
77.1336
21
-134.298
0
LINE
8
BLACK
6
CONTINUOUS
10
77.1336
20
-134.298
11
77.2764
21
-134.584
0
LINE
8
BLACK
6
CONTINUOUS
10
77.2764
20
-134.584
11
77.2764
21
-134.726
0
LINE
8
BLACK
6
CONTINUOUS
10
77.2764
20
-134.726
11
77.1336
21
-135.012
0
LINE
8
BLACK
6
CONTINUOUS
10
77.1336
20
-135.012
11
76.9907
21
-135.155
0
LINE
8
BLACK
6
CONTINUOUS
10
76.9907
20
-135.155
11
76.705
21
-135.298
0
LINE
8
BLACK
6
CONTINUOUS
10
76.705
20
-135.298
11
76.1336
21
-135.298
0
LINE
8
BLACK
6
CONTINUOUS
10
76.1336
20
-135.298
11
75.8479
21
-135.441
0
LINE
8
BLACK
6
CONTINUOUS
10
75.8479
20
-135.441
11
75.705
21
-135.584
0
LINE
8
BLACK
6
CONTINUOUS
10
75.705
20
-135.584
11
75.5621
21
-135.869
0
LINE
8
BLACK
6
CONTINUOUS
10
75.5621
20
-135.869
11
75.5621
21
-136.441
0
LINE
8
BLACK
6
CONTINUOUS
10
75.5621
20
-136.441
11
75.705
21
-136.726
0
LINE
8
BLACK
6
CONTINUOUS
10
75.705
20
-136.726
11
75.8479
21
-136.869
0
LINE
8
BLACK
6
CONTINUOUS
10
75.8479
20
-136.869
11
76.1336
21
-137.012
0
LINE
8
BLACK
6
CONTINUOUS
10
76.1336
20
-137.012
11
76.705
21
-137.012
0
LINE
8
BLACK
6
CONTINUOUS
10
76.705
20
-137.012
11
76.9907
21
-136.869
0
LINE
8
BLACK
6
CONTINUOUS
10
76.9907
20
-136.869
11
77.1336
21
-136.726
0
LINE
8
BLACK
6
CONTINUOUS
10
77.1336
20
-136.726
11
77.2764
21
-136.441
0
LINE
8
BLACK
6
CONTINUOUS
10
77.2764
20
-136.441
11
77.2764
21
-135.869
0
LINE
8
BLACK
6
CONTINUOUS
10
77.2764
20
-135.869
11
77.1336
21
-135.584
0
LINE
8
BLACK
6
CONTINUOUS
10
77.1336
20
-135.584
11
76.9907
21
-135.441
0
LINE
8
BLACK
6
CONTINUOUS
10
76.9907
20
-135.441
11
76.705
21
-135.298
0
LINE
8
BLACK
6
CONTINUOUS
10
79.1336
20
-134.012
11
79.4193
21
-134.012
0
LINE
8
BLACK
6
CONTINUOUS
10
79.4193
20
-134.012
11
79.705
21
-134.155
0
LINE
8
BLACK
6
CONTINUOUS
10
79.705
20
-134.155
11
79.8479
21
-134.298
0
LINE
8
BLACK
6
CONTINUOUS
10
79.8479
20
-134.298
11
79.9907
21
-134.584
0
LINE
8
BLACK
6
CONTINUOUS
10
79.9907
20
-134.584
11
80.1336
21
-135.155
0
LINE
8
BLACK
6
CONTINUOUS
10
80.1336
20
-135.155
11
80.1336
21
-135.869
0
LINE
8
BLACK
6
CONTINUOUS
10
80.1336
20
-135.869
11
79.9907
21
-136.441
0
LINE
8
BLACK
6
CONTINUOUS
10
79.9907
20
-136.441
11
79.8479
21
-136.726
0
LINE
8
BLACK
6
CONTINUOUS
10
79.8479
20
-136.726
11
79.705
21
-136.869
0
LINE
8
BLACK
6
CONTINUOUS
10
79.705
20
-136.869
11
79.4193
21
-137.012
0
LINE
8
BLACK
6
CONTINUOUS
10
79.4193
20
-137.012
11
79.1336
21
-137.012
0
LINE
8
BLACK
6
CONTINUOUS
10
79.1336
20
-137.012
11
78.8479
21
-136.869
0
LINE
8
BLACK
6
CONTINUOUS
10
78.8479
20
-136.869
11
78.705
21
-136.726
0
LINE
8
BLACK
6
CONTINUOUS
10
78.705
20
-136.726
11
78.5621
21
-136.441
0
LINE
8
BLACK
6
CONTINUOUS
10
78.5621
20
-136.441
11
78.4193
21
-135.869
0
LINE
8
BLACK
6
CONTINUOUS
10
78.4193
20
-135.869
11
78.4193
21
-135.155
0
LINE
8
BLACK
6
CONTINUOUS
10
78.4193
20
-135.155
11
78.5621
21
-134.584
0
LINE
8
BLACK
6
CONTINUOUS
10
78.5621
20
-134.584
11
78.705
21
-134.298
0
LINE
8
BLACK
6
CONTINUOUS
10
78.705
20
-134.298
11
78.8479
21
-134.155
0
LINE
8
BLACK
6
CONTINUOUS
10
78.8479
20
-134.155
11
79.1336
21
-134.012
0
LINE
8
BLACK
6
CONTINUOUS
10
81.4193
20
-137.012
11
81.4193
21
-135.012
0
LINE
8
BLACK
6
CONTINUOUS
10
81.4193
20
-135.298
11
81.5621
21
-135.155
0
LINE
8
BLACK
6
CONTINUOUS
10
81.5621
20
-135.155
11
81.8479
21
-135.012
0
LINE
8
BLACK
6
CONTINUOUS
10
81.8479
20
-135.012
11
82.2764
21
-135.012
0
LINE
8
BLACK
6
CONTINUOUS
10
82.2764
20
-135.012
11
82.5621
21
-135.155
0
LINE
8
BLACK
6
CONTINUOUS
10
82.5621
20
-135.155
11
82.705
21
-135.441
0
LINE
8
BLACK
6
CONTINUOUS
10
82.705
20
-135.441
11
82.705
21
-137.012
0
LINE
8
BLACK
6
CONTINUOUS
10
82.705
20
-135.441
11
82.8479
21
-135.155
0
LINE
8
BLACK
6
CONTINUOUS
10
82.8479
20
-135.155
11
83.1336
21
-135.012
0
LINE
8
BLACK
6
CONTINUOUS
10
83.1336
20
-135.012
11
83.5621
21
-135.012
0
LINE
8
BLACK
6
CONTINUOUS
10
83.5621
20
-135.012
11
83.8479
21
-135.155
0
LINE
8
BLACK
6
CONTINUOUS
10
83.8479
20
-135.155
11
83.9907
21
-135.441
0
LINE
8
BLACK
6
CONTINUOUS
10
83.9907
20
-135.441
11
83.9907
21
-137.012
0
LINE
8
BLACK
6
CONTINUOUS
10
85.4193
20
-137.012
11
85.4193
21
-135.012
0
LINE
8
BLACK
6
CONTINUOUS
10
85.4193
20
-135.298
11
85.5621
21
-135.155
0
LINE
8
BLACK
6
CONTINUOUS
10
85.5621
20
-135.155
11
85.8479
21
-135.012
0
LINE
8
BLACK
6
CONTINUOUS
10
85.8479
20
-135.012
11
86.2764
21
-135.012
0
LINE
8
BLACK
6
CONTINUOUS
10
86.2764
20
-135.012
11
86.5621
21
-135.155
0
LINE
8
BLACK
6
CONTINUOUS
10
86.5621
20
-135.155
11
86.705
21
-135.441
0
LINE
8
BLACK
6
CONTINUOUS
10
86.705
20
-135.441
11
86.705
21
-137.012
0
LINE
8
BLACK
6
CONTINUOUS
10
86.705
20
-135.441
11
86.8479
21
-135.155
0
LINE
8
BLACK
6
CONTINUOUS
10
86.8479
20
-135.155
11
87.1336
21
-135.012
0
LINE
8
BLACK
6
CONTINUOUS
10
87.1336
20
-135.012
11
87.5621
21
-135.012
0
LINE
8
BLACK
6
CONTINUOUS
10
87.5621
20
-135.012
11
87.8479
21
-135.155
0
LINE
8
BLACK
6
CONTINUOUS
10
87.8479
20
-135.155
11
87.9907
21
-135.441
0
LINE
8
BLACK
6
CONTINUOUS
10
87.9907
20
-135.441
11
87.9907
21
-137.012
0
LINE
8
BLACK
6
CONTINUOUS
10
93.8479
20
-133.869
11
91.2764
21
-137.726
0
LINE
8
BLACK
6
CONTINUOUS
10
97.705
20
-134.012
11
97.9907
21
-134.012
0
LINE
8
BLACK
6
CONTINUOUS
10
97.9907
20
-134.012
11
98.2764
21
-134.155
0
LINE
8
BLACK
6
CONTINUOUS
10
98.2764
20
-134.155
11
98.4193
21
-134.298
0
LINE
8
BLACK
6
CONTINUOUS
10
98.4193
20
-134.298
11
98.5621
21
-134.584
0
LINE
8
BLACK
6
CONTINUOUS
10
98.5621
20
-134.584
11
98.705
21
-135.155
0
LINE
8
BLACK
6
CONTINUOUS
10
98.705
20
-135.155
11
98.705
21
-135.869
0
LINE
8
BLACK
6
CONTINUOUS
10
98.705
20
-135.869
11
98.5621
21
-136.441
0
LINE
8
BLACK
6
CONTINUOUS
10
98.5621
20
-136.441
11
98.4193
21
-136.726
0
LINE
8
BLACK
6
CONTINUOUS
10
98.4193
20
-136.726
11
98.2764
21
-136.869
0
LINE
8
BLACK
6
CONTINUOUS
10
98.2764
20
-136.869
11
97.9907
21
-137.012
0
LINE
8
BLACK
6
CONTINUOUS
10
97.9907
20
-137.012
11
97.705
21
-137.012
0
LINE
8
BLACK
6
CONTINUOUS
10
97.705
20
-137.012
11
97.4193
21
-136.869
0
LINE
8
BLACK
6
CONTINUOUS
10
97.4193
20
-136.869
11
97.2764
21
-136.726
0
LINE
8
BLACK
6
CONTINUOUS
10
97.2764
20
-136.726
11
97.1336
21
-136.441
0
LINE
8
BLACK
6
CONTINUOUS
10
97.1336
20
-136.441
11
96.9907
21
-135.869
0
LINE
8
BLACK
6
CONTINUOUS
10
96.9907
20
-135.869
11
96.9907
21
-135.155
0
LINE
8
BLACK
6
CONTINUOUS
10
96.9907
20
-135.155
11
97.1336
21
-134.584
0
LINE
8
BLACK
6
CONTINUOUS
10
97.1336
20
-134.584
11
97.2764
21
-134.298
0
LINE
8
BLACK
6
CONTINUOUS
10
97.2764
20
-134.298
11
97.4193
21
-134.155
0
LINE
8
BLACK
6
CONTINUOUS
10
97.4193
20
-134.155
11
97.705
21
-134.012
0
LINE
8
BLACK
6
CONTINUOUS
10
99.9907
20
-136.726
11
100.134
21
-136.869
0
LINE
8
BLACK
6
CONTINUOUS
10
100.134
20
-136.869
11
99.9907
21
-137.012
0
LINE
8
BLACK
6
CONTINUOUS
10
99.9907
20
-137.012
11
99.8479
21
-136.869
0
LINE
8
BLACK
6
CONTINUOUS
10
99.8479
20
-136.869
11
99.9907
21
-136.726
0
LINE
8
BLACK
6
CONTINUOUS
10
99.9907
20
-136.726
11
99.9907
21
-137.012
0
LINE
8
BLACK
6
CONTINUOUS
10
101.991
20
-134.012
11
102.276
21
-134.012
0
LINE
8
BLACK
6
CONTINUOUS
10
102.276
20
-134.012
11
102.562
21
-134.155
0
LINE
8
BLACK
6
CONTINUOUS
10
102.562
20
-134.155
11
102.705
21
-134.298
0
LINE
8
BLACK
6
CONTINUOUS
10
102.705
20
-134.298
11
102.848
21
-134.584
0
LINE
8
BLACK
6
CONTINUOUS
10
102.848
20
-134.584
11
102.991
21
-135.155
0
LINE
8
BLACK
6
CONTINUOUS
10
102.991
20
-135.155
11
102.991
21
-135.869
0
LINE
8
BLACK
6
CONTINUOUS
10
102.991
20
-135.869
11
102.848
21
-136.441
0
LINE
8
BLACK
6
CONTINUOUS
10
102.848
20
-136.441
11
102.705
21
-136.726
0
LINE
8
BLACK
6
CONTINUOUS
10
102.705
20
-136.726
11
102.562
21
-136.869
0
LINE
8
BLACK
6
CONTINUOUS
10
102.562
20
-136.869
11
102.276
21
-137.012
0
LINE
8
BLACK
6
CONTINUOUS
10
102.276
20
-137.012
11
101.991
21
-137.012
0
LINE
8
BLACK
6
CONTINUOUS
10
101.991
20
-137.012
11
101.705
21
-136.869
0
LINE
8
BLACK
6
CONTINUOUS
10
101.705
20
-136.869
11
101.562
21
-136.726
0
LINE
8
BLACK
6
CONTINUOUS
10
101.562
20
-136.726
11
101.419
21
-136.441
0
LINE
8
BLACK
6
CONTINUOUS
10
101.419
20
-136.441
11
101.276
21
-135.869
0
LINE
8
BLACK
6
CONTINUOUS
10
101.276
20
-135.869
11
101.276
21
-135.155
0
LINE
8
BLACK
6
CONTINUOUS
10
101.276
20
-135.155
11
101.419
21
-134.584
0
LINE
8
BLACK
6
CONTINUOUS
10
101.419
20
-134.584
11
101.562
21
-134.298
0
LINE
8
BLACK
6
CONTINUOUS
10
101.562
20
-134.298
11
101.705
21
-134.155
0
LINE
8
BLACK
6
CONTINUOUS
10
101.705
20
-134.155
11
101.991
21
-134.012
0
LINE
8
BLACK
6
CONTINUOUS
10
103.991
20
-134.012
11
105.848
21
-134.012
0
LINE
8
BLACK
6
CONTINUOUS
10
105.848
20
-134.012
11
104.848
21
-135.155
0
LINE
8
BLACK
6
CONTINUOUS
10
104.848
20
-135.155
11
105.276
21
-135.155
0
LINE
8
BLACK
6
CONTINUOUS
10
105.276
20
-135.155
11
105.562
21
-135.298
0
LINE
8
BLACK
6
CONTINUOUS
10
105.562
20
-135.298
11
105.705
21
-135.441
0
LINE
8
BLACK
6
CONTINUOUS
10
105.705
20
-135.441
11
105.848
21
-135.726
0
LINE
8
BLACK
6
CONTINUOUS
10
105.848
20
-135.726
11
105.848
21
-136.441
0
LINE
8
BLACK
6
CONTINUOUS
10
105.848
20
-136.441
11
105.705
21
-136.726
0
LINE
8
BLACK
6
CONTINUOUS
10
105.705
20
-136.726
11
105.562
21
-136.869
0
LINE
8
BLACK
6
CONTINUOUS
10
105.562
20
-136.869
11
105.276
21
-137.012
0
LINE
8
BLACK
6
CONTINUOUS
10
105.276
20
-137.012
11
104.419
21
-137.012
0
LINE
8
BLACK
6
CONTINUOUS
10
104.419
20
-137.012
11
104.134
21
-136.869
0
LINE
8
BLACK
6
CONTINUOUS
10
104.134
20
-136.869
11
103.991
21
-136.726
0
LINE
8
BLACK
6
CONTINUOUS
10
108.705
20
-137.012
11
106.991
21
-137.012
0
LINE
8
BLACK
6
CONTINUOUS
10
107.848
20
-137.012
11
107.848
21
-134.012
0
LINE
8
BLACK
6
CONTINUOUS
10
107.848
20
-134.012
11
107.562
21
-134.441
0
LINE
8
BLACK
6
CONTINUOUS
10
107.562
20
-134.441
11
107.276
21
-134.726
0
LINE
8
BLACK
6
CONTINUOUS
10
107.276
20
-134.726
11
106.991
21
-134.869
0
LINE
8
BLACK
6
CONTINUOUS
10
109.848
20
-134.012
11
109.848
21
-134.584
0
LINE
8
BLACK
6
CONTINUOUS
10
110.991
20
-134.012
11
110.991
21
-134.584
0
LINE
8
BLACK
6
CONTINUOUS
10
115.419
20
-138.155
11
115.276
21
-138.012
0
LINE
8
BLACK
6
CONTINUOUS
10
115.276
20
-138.012
11
114.991
21
-137.584
0
LINE
8
BLACK
6
CONTINUOUS
10
114.991
20
-137.584
11
114.848
21
-137.298
0
LINE
8
BLACK
6
CONTINUOUS
10
114.848
20
-137.298
11
114.705
21
-136.869
0
LINE
8
BLACK
6
CONTINUOUS
10
114.705
20
-136.869
11
114.562
21
-136.155
0
LINE
8
BLACK
6
CONTINUOUS
10
114.562
20
-136.155
11
114.562
21
-135.584
0
LINE
8
BLACK
6
CONTINUOUS
10
114.562
20
-135.584
11
114.705
21
-134.869
0
LINE
8
BLACK
6
CONTINUOUS
10
114.705
20
-134.869
11
114.848
21
-134.441
0
LINE
8
BLACK
6
CONTINUOUS
10
114.848
20
-134.441
11
114.991
21
-134.155
0
LINE
8
BLACK
6
CONTINUOUS
10
114.991
20
-134.155
11
115.276
21
-133.726
0
LINE
8
BLACK
6
CONTINUOUS
10
115.276
20
-133.726
11
115.419
21
-133.584
0
LINE
8
BLACK
6
CONTINUOUS
10
117.991
20
-134.012
11
116.562
21
-134.012
0
LINE
8
BLACK
6
CONTINUOUS
10
116.562
20
-134.012
11
116.419
21
-135.441
0
LINE
8
BLACK
6
CONTINUOUS
10
116.419
20
-135.441
11
116.562
21
-135.298
0
LINE
8
BLACK
6
CONTINUOUS
10
116.562
20
-135.298
11
116.848
21
-135.155
0
LINE
8
BLACK
6
CONTINUOUS
10
116.848
20
-135.155
11
117.562
21
-135.155
0
LINE
8
BLACK
6
CONTINUOUS
10
117.562
20
-135.155
11
117.848
21
-135.298
0
LINE
8
BLACK
6
CONTINUOUS
10
117.848
20
-135.298
11
117.991
21
-135.441
0
LINE
8
BLACK
6
CONTINUOUS
10
117.991
20
-135.441
11
118.134
21
-135.726
0
LINE
8
BLACK
6
CONTINUOUS
10
118.134
20
-135.726
11
118.134
21
-136.441
0
LINE
8
BLACK
6
CONTINUOUS
10
118.134
20
-136.441
11
117.991
21
-136.726
0
LINE
8
BLACK
6
CONTINUOUS
10
117.991
20
-136.726
11
117.848
21
-136.869
0
LINE
8
BLACK
6
CONTINUOUS
10
117.848
20
-136.869
11
117.562
21
-137.012
0
LINE
8
BLACK
6
CONTINUOUS
10
117.562
20
-137.012
11
116.848
21
-137.012
0
LINE
8
BLACK
6
CONTINUOUS
10
116.848
20
-137.012
11
116.562
21
-136.869
0
LINE
8
BLACK
6
CONTINUOUS
10
116.562
20
-136.869
11
116.419
21
-136.726
0
LINE
8
BLACK
6
CONTINUOUS
10
119.276
20
-134.298
11
119.419
21
-134.155
0
LINE
8
BLACK
6
CONTINUOUS
10
119.419
20
-134.155
11
119.705
21
-134.012
0
LINE
8
BLACK
6
CONTINUOUS
10
119.705
20
-134.012
11
120.419
21
-134.012
0
LINE
8
BLACK
6
CONTINUOUS
10
120.419
20
-134.012
11
120.705
21
-134.155
0
LINE
8
BLACK
6
CONTINUOUS
10
120.705
20
-134.155
11
120.848
21
-134.298
0
LINE
8
BLACK
6
CONTINUOUS
10
120.848
20
-134.298
11
120.991
21
-134.584
0
LINE
8
BLACK
6
CONTINUOUS
10
120.991
20
-134.584
11
120.991
21
-134.869
0
LINE
8
BLACK
6
CONTINUOUS
10
120.991
20
-134.869
11
120.848
21
-135.298
0
LINE
8
BLACK
6
CONTINUOUS
10
120.848
20
-135.298
11
119.134
21
-137.012
0
LINE
8
BLACK
6
CONTINUOUS
10
119.134
20
-137.012
11
120.991
21
-137.012
0
LINE
8
BLACK
6
CONTINUOUS
10
124.562
20
-137.012
11
124.562
21
-134.012
0
LINE
8
BLACK
6
CONTINUOUS
10
125.848
20
-137.012
11
125.848
21
-135.441
0
LINE
8
BLACK
6
CONTINUOUS
10
125.848
20
-135.441
11
125.705
21
-135.155
0
LINE
8
BLACK
6
CONTINUOUS
10
125.705
20
-135.155
11
125.419
21
-135.012
0
LINE
8
BLACK
6
CONTINUOUS
10
125.419
20
-135.012
11
124.991
21
-135.012
0
LINE
8
BLACK
6
CONTINUOUS
10
124.991
20
-135.012
11
124.705
21
-135.155
0
LINE
8
BLACK
6
CONTINUOUS
10
124.705
20
-135.155
11
124.562
21
-135.298
0
LINE
8
BLACK
6
CONTINUOUS
10
127.705
20
-137.012
11
127.419
21
-136.869
0
LINE
8
BLACK
6
CONTINUOUS
10
127.419
20
-136.869
11
127.276
21
-136.726
0
LINE
8
BLACK
6
CONTINUOUS
10
127.276
20
-136.726
11
127.134
21
-136.441
0
LINE
8
BLACK
6
CONTINUOUS
10
127.134
20
-136.441
11
127.134
21
-135.584
0
LINE
8
BLACK
6
CONTINUOUS
10
127.134
20
-135.584
11
127.276
21
-135.298
0
LINE
8
BLACK
6
CONTINUOUS
10
127.276
20
-135.298
11
127.419
21
-135.155
0
LINE
8
BLACK
6
CONTINUOUS
10
127.419
20
-135.155
11
127.705
21
-135.012
0
LINE
8
BLACK
6
CONTINUOUS
10
127.705
20
-135.012
11
128.134
21
-135.012
0
LINE
8
BLACK
6
CONTINUOUS
10
128.134
20
-135.012
11
128.419
21
-135.155
0
LINE
8
BLACK
6
CONTINUOUS
10
128.419
20
-135.155
11
128.562
21
-135.298
0
LINE
8
BLACK
6
CONTINUOUS
10
128.562
20
-135.298
11
128.705
21
-135.584
0
LINE
8
BLACK
6
CONTINUOUS
10
128.705
20
-135.584
11
128.705
21
-136.441
0
LINE
8
BLACK
6
CONTINUOUS
10
128.705
20
-136.441
11
128.562
21
-136.726
0
LINE
8
BLACK
6
CONTINUOUS
10
128.562
20
-136.726
11
128.419
21
-136.869
0
LINE
8
BLACK
6
CONTINUOUS
10
128.419
20
-136.869
11
128.134
21
-137.012
0
LINE
8
BLACK
6
CONTINUOUS
10
128.134
20
-137.012
11
127.705
21
-137.012
0
LINE
8
BLACK
6
CONTINUOUS
10
130.419
20
-137.012
11
130.134
21
-136.869
0
LINE
8
BLACK
6
CONTINUOUS
10
130.134
20
-136.869
11
129.991
21
-136.584
0
LINE
8
BLACK
6
CONTINUOUS
10
129.991
20
-136.584
11
129.991
21
-134.012
0
LINE
8
BLACK
6
CONTINUOUS
10
132.705
20
-136.869
11
132.419
21
-137.012
0
LINE
8
BLACK
6
CONTINUOUS
10
132.419
20
-137.012
11
131.848
21
-137.012
0
LINE
8
BLACK
6
CONTINUOUS
10
131.848
20
-137.012
11
131.562
21
-136.869
0
LINE
8
BLACK
6
CONTINUOUS
10
131.562
20
-136.869
11
131.419
21
-136.584
0
LINE
8
BLACK
6
CONTINUOUS
10
131.419
20
-136.584
11
131.419
21
-135.441
0
LINE
8
BLACK
6
CONTINUOUS
10
131.419
20
-135.441
11
131.562
21
-135.155
0
LINE
8
BLACK
6
CONTINUOUS
10
131.562
20
-135.155
11
131.848
21
-135.012
0
LINE
8
BLACK
6
CONTINUOUS
10
131.848
20
-135.012
11
132.419
21
-135.012
0
LINE
8
BLACK
6
CONTINUOUS
10
132.419
20
-135.012
11
132.705
21
-135.155
0
LINE
8
BLACK
6
CONTINUOUS
10
132.705
20
-135.155
11
132.848
21
-135.441
0
LINE
8
BLACK
6
CONTINUOUS
10
132.848
20
-135.441
11
132.848
21
-135.726
0
LINE
8
BLACK
6
CONTINUOUS
10
132.848
20
-135.726
11
131.419
21
-136.012
0
LINE
8
BLACK
6
CONTINUOUS
10
133.991
20
-136.869
11
134.276
21
-137.012
0
LINE
8
BLACK
6
CONTINUOUS
10
134.276
20
-137.012
11
134.848
21
-137.012
0
LINE
8
BLACK
6
CONTINUOUS
10
134.848
20
-137.012
11
135.134
21
-136.869
0
LINE
8
BLACK
6
CONTINUOUS
10
135.134
20
-136.869
11
135.276
21
-136.584
0
LINE
8
BLACK
6
CONTINUOUS
10
135.276
20
-136.584
11
135.276
21
-136.441
0
LINE
8
BLACK
6
CONTINUOUS
10
135.276
20
-136.441
11
135.134
21
-136.155
0
LINE
8
BLACK
6
CONTINUOUS
10
135.134
20
-136.155
11
134.848
21
-136.012
0
LINE
8
BLACK
6
CONTINUOUS
10
134.848
20
-136.012
11
134.419
21
-136.012
0
LINE
8
BLACK
6
CONTINUOUS
10
134.419
20
-136.012
11
134.134
21
-135.869
0
LINE
8
BLACK
6
CONTINUOUS
10
134.134
20
-135.869
11
133.991
21
-135.584
0
LINE
8
BLACK
6
CONTINUOUS
10
133.991
20
-135.584
11
133.991
21
-135.441
0
LINE
8
BLACK
6
CONTINUOUS
10
133.991
20
-135.441
11
134.134
21
-135.155
0
LINE
8
BLACK
6
CONTINUOUS
10
134.134
20
-135.155
11
134.419
21
-135.012
0
LINE
8
BLACK
6
CONTINUOUS
10
134.419
20
-135.012
11
134.848
21
-135.012
0
LINE
8
BLACK
6
CONTINUOUS
10
134.848
20
-135.012
11
135.134
21
-135.155
0
LINE
8
BLACK
6
CONTINUOUS
10
136.276
20
-138.155
11
136.419
21
-138.012
0
LINE
8
BLACK
6
CONTINUOUS
10
136.419
20
-138.012
11
136.705
21
-137.584
0
LINE
8
BLACK
6
CONTINUOUS
10
136.705
20
-137.584
11
136.848
21
-137.298
0
LINE
8
BLACK
6
CONTINUOUS
10
136.848
20
-137.298
11
136.991
21
-136.869
0
LINE
8
BLACK
6
CONTINUOUS
10
136.991
20
-136.869
11
137.134
21
-136.155
0
LINE
8
BLACK
6
CONTINUOUS
10
137.134
20
-136.155
11
137.134
21
-135.584
0
LINE
8
BLACK
6
CONTINUOUS
10
137.134
20
-135.584
11
136.991
21
-134.869
0
LINE
8
BLACK
6
CONTINUOUS
10
136.991
20
-134.869
11
136.848
21
-134.441
0
LINE
8
BLACK
6
CONTINUOUS
10
136.848
20
-134.441
11
136.705
21
-134.155
0
LINE
8
BLACK
6
CONTINUOUS
10
136.705
20
-134.155
11
136.419
21
-133.726
0
LINE
8
BLACK
6
CONTINUOUS
10
136.419
20
-133.726
11
136.276
21
-133.584
0
LINE
8
BLACK
6
CONTINUOUS
10
68.4086
20
-139.969
11
68.4086
21
-139.261
0
LINE
8
BLACK
6
CONTINUOUS
10
68.4086
20
-139.261
11
67.7014
21
-139.261
0
LINE
8
BLACK
6
CONTINUOUS
10
67.7014
20
-139.261
11
67.7014
21
-139.969
0
LINE
8
BLACK
6
CONTINUOUS
10
67.7014
20
-139.969
11
68.4086
21
-139.969
0
LINE
8
BLACK
6
CONTINUOUS
10
72.9907
20
-140.972
11
71.2764
21
-140.972
0
LINE
8
BLACK
6
CONTINUOUS
10
72.1336
20
-140.972
11
72.1336
21
-137.972
0
LINE
8
BLACK
6
CONTINUOUS
10
72.1336
20
-137.972
11
71.8479
21
-138.401
0
LINE
8
BLACK
6
CONTINUOUS
10
71.8479
20
-138.401
11
71.5621
21
-138.686
0
LINE
8
BLACK
6
CONTINUOUS
10
71.5621
20
-138.686
11
71.2764
21
-138.829
0
LINE
8
BLACK
6
CONTINUOUS
10
74.2764
20
-140.686
11
74.4193
21
-140.829
0
LINE
8
BLACK
6
CONTINUOUS
10
74.4193
20
-140.829
11
74.2764
21
-140.972
0
LINE
8
BLACK
6
CONTINUOUS
10
74.2764
20
-140.972
11
74.1336
21
-140.829
0
LINE
8
BLACK
6
CONTINUOUS
10
74.1336
20
-140.829
11
74.2764
21
-140.686
0
LINE
8
BLACK
6
CONTINUOUS
10
74.2764
20
-140.686
11
74.2764
21
-140.972
0
LINE
8
BLACK
6
CONTINUOUS
10
76.2764
20
-137.972
11
76.5621
21
-137.972
0
LINE
8
BLACK
6
CONTINUOUS
10
76.5621
20
-137.972
11
76.8479
21
-138.115
0
LINE
8
BLACK
6
CONTINUOUS
10
76.8479
20
-138.115
11
76.9907
21
-138.258
0
LINE
8
BLACK
6
CONTINUOUS
10
76.9907
20
-138.258
11
77.1336
21
-138.544
0
LINE
8
BLACK
6
CONTINUOUS
10
77.1336
20
-138.544
11
77.2764
21
-139.115
0
LINE
8
BLACK
6
CONTINUOUS
10
77.2764
20
-139.115
11
77.2764
21
-139.829
0
LINE
8
BLACK
6
CONTINUOUS
10
77.2764
20
-139.829
11
77.1336
21
-140.401
0
LINE
8
BLACK
6
CONTINUOUS
10
77.1336
20
-140.401
11
76.9907
21
-140.686
0
LINE
8
BLACK
6
CONTINUOUS
10
76.9907
20
-140.686
11
76.8479
21
-140.829
0
LINE
8
BLACK
6
CONTINUOUS
10
76.8479
20
-140.829
11
76.5621
21
-140.972
0
LINE
8
BLACK
6
CONTINUOUS
10
76.5621
20
-140.972
11
76.2764
21
-140.972
0
LINE
8
BLACK
6
CONTINUOUS
10
76.2764
20
-140.972
11
75.9907
21
-140.829
0
LINE
8
BLACK
6
CONTINUOUS
10
75.9907
20
-140.829
11
75.8479
21
-140.686
0
LINE
8
BLACK
6
CONTINUOUS
10
75.8479
20
-140.686
11
75.705
21
-140.401
0
LINE
8
BLACK
6
CONTINUOUS
10
75.705
20
-140.401
11
75.5621
21
-139.829
0
LINE
8
BLACK
6
CONTINUOUS
10
75.5621
20
-139.829
11
75.5621
21
-139.115
0
LINE
8
BLACK
6
CONTINUOUS
10
75.5621
20
-139.115
11
75.705
21
-138.544
0
LINE
8
BLACK
6
CONTINUOUS
10
75.705
20
-138.544
11
75.8479
21
-138.258
0
LINE
8
BLACK
6
CONTINUOUS
10
75.8479
20
-138.258
11
75.9907
21
-138.115
0
LINE
8
BLACK
6
CONTINUOUS
10
75.9907
20
-138.115
11
76.2764
21
-137.972
0
LINE
8
BLACK
6
CONTINUOUS
10
79.1336
20
-137.972
11
79.4193
21
-137.972
0
LINE
8
BLACK
6
CONTINUOUS
10
79.4193
20
-137.972
11
79.705
21
-138.115
0
LINE
8
BLACK
6
CONTINUOUS
10
79.705
20
-138.115
11
79.8479
21
-138.258
0
LINE
8
BLACK
6
CONTINUOUS
10
79.8479
20
-138.258
11
79.9907
21
-138.544
0
LINE
8
BLACK
6
CONTINUOUS
10
79.9907
20
-138.544
11
80.1336
21
-139.115
0
LINE
8
BLACK
6
CONTINUOUS
10
80.1336
20
-139.115
11
80.1336
21
-139.829
0
LINE
8
BLACK
6
CONTINUOUS
10
80.1336
20
-139.829
11
79.9907
21
-140.401
0
LINE
8
BLACK
6
CONTINUOUS
10
79.9907
20
-140.401
11
79.8479
21
-140.686
0
LINE
8
BLACK
6
CONTINUOUS
10
79.8479
20
-140.686
11
79.705
21
-140.829
0
LINE
8
BLACK
6
CONTINUOUS
10
79.705
20
-140.829
11
79.4193
21
-140.972
0
LINE
8
BLACK
6
CONTINUOUS
10
79.4193
20
-140.972
11
79.1336
21
-140.972
0
LINE
8
BLACK
6
CONTINUOUS
10
79.1336
20
-140.972
11
78.8479
21
-140.829
0
LINE
8
BLACK
6
CONTINUOUS
10
78.8479
20
-140.829
11
78.705
21
-140.686
0
LINE
8
BLACK
6
CONTINUOUS
10
78.705
20
-140.686
11
78.5621
21
-140.401
0
LINE
8
BLACK
6
CONTINUOUS
10
78.5621
20
-140.401
11
78.4193
21
-139.829
0
LINE
8
BLACK
6
CONTINUOUS
10
78.4193
20
-139.829
11
78.4193
21
-139.115
0
LINE
8
BLACK
6
CONTINUOUS
10
78.4193
20
-139.115
11
78.5621
21
-138.544
0
LINE
8
BLACK
6
CONTINUOUS
10
78.5621
20
-138.544
11
78.705
21
-138.258
0
LINE
8
BLACK
6
CONTINUOUS
10
78.705
20
-138.258
11
78.8479
21
-138.115
0
LINE
8
BLACK
6
CONTINUOUS
10
78.8479
20
-138.115
11
79.1336
21
-137.972
0
LINE
8
BLACK
6
CONTINUOUS
10
81.4193
20
-140.972
11
81.4193
21
-138.972
0
LINE
8
BLACK
6
CONTINUOUS
10
81.4193
20
-139.258
11
81.5621
21
-139.115
0
LINE
8
BLACK
6
CONTINUOUS
10
81.5621
20
-139.115
11
81.8479
21
-138.972
0
LINE
8
BLACK
6
CONTINUOUS
10
81.8479
20
-138.972
11
82.2764
21
-138.972
0
LINE
8
BLACK
6
CONTINUOUS
10
82.2764
20
-138.972
11
82.5621
21
-139.115
0
LINE
8
BLACK
6
CONTINUOUS
10
82.5621
20
-139.115
11
82.705
21
-139.401
0
LINE
8
BLACK
6
CONTINUOUS
10
82.705
20
-139.401
11
82.705
21
-140.972
0
LINE
8
BLACK
6
CONTINUOUS
10
82.705
20
-139.401
11
82.8479
21
-139.115
0
LINE
8
BLACK
6
CONTINUOUS
10
82.8479
20
-139.115
11
83.1336
21
-138.972
0
LINE
8
BLACK
6
CONTINUOUS
10
83.1336
20
-138.972
11
83.5621
21
-138.972
0
LINE
8
BLACK
6
CONTINUOUS
10
83.5621
20
-138.972
11
83.8479
21
-139.115
0
LINE
8
BLACK
6
CONTINUOUS
10
83.8479
20
-139.115
11
83.9907
21
-139.401
0
LINE
8
BLACK
6
CONTINUOUS
10
83.9907
20
-139.401
11
83.9907
21
-140.972
0
LINE
8
BLACK
6
CONTINUOUS
10
85.4193
20
-140.972
11
85.4193
21
-138.972
0
LINE
8
BLACK
6
CONTINUOUS
10
85.4193
20
-139.258
11
85.5621
21
-139.115
0
LINE
8
BLACK
6
CONTINUOUS
10
85.5621
20
-139.115
11
85.8479
21
-138.972
0
LINE
8
BLACK
6
CONTINUOUS
10
85.8479
20
-138.972
11
86.2764
21
-138.972
0
LINE
8
BLACK
6
CONTINUOUS
10
86.2764
20
-138.972
11
86.5621
21
-139.115
0
LINE
8
BLACK
6
CONTINUOUS
10
86.5621
20
-139.115
11
86.705
21
-139.401
0
LINE
8
BLACK
6
CONTINUOUS
10
86.705
20
-139.401
11
86.705
21
-140.972
0
LINE
8
BLACK
6
CONTINUOUS
10
86.705
20
-139.401
11
86.8479
21
-139.115
0
LINE
8
BLACK
6
CONTINUOUS
10
86.8479
20
-139.115
11
87.1336
21
-138.972
0
LINE
8
BLACK
6
CONTINUOUS
10
87.1336
20
-138.972
11
87.5621
21
-138.972
0
LINE
8
BLACK
6
CONTINUOUS
10
87.5621
20
-138.972
11
87.8479
21
-139.115
0
LINE
8
BLACK
6
CONTINUOUS
10
87.8479
20
-139.115
11
87.9907
21
-139.401
0
LINE
8
BLACK
6
CONTINUOUS
10
87.9907
20
-139.401
11
87.9907
21
-140.972
0
LINE
8
BLACK
6
CONTINUOUS
10
93.8479
20
-137.829
11
91.2764
21
-141.686
0
LINE
8
BLACK
6
CONTINUOUS
10
97.705
20
-137.972
11
97.9907
21
-137.972
0
LINE
8
BLACK
6
CONTINUOUS
10
97.9907
20
-137.972
11
98.2764
21
-138.115
0
LINE
8
BLACK
6
CONTINUOUS
10
98.2764
20
-138.115
11
98.4193
21
-138.258
0
LINE
8
BLACK
6
CONTINUOUS
10
98.4193
20
-138.258
11
98.5621
21
-138.544
0
LINE
8
BLACK
6
CONTINUOUS
10
98.5621
20
-138.544
11
98.705
21
-139.115
0
LINE
8
BLACK
6
CONTINUOUS
10
98.705
20
-139.115
11
98.705
21
-139.829
0
LINE
8
BLACK
6
CONTINUOUS
10
98.705
20
-139.829
11
98.5621
21
-140.401
0
LINE
8
BLACK
6
CONTINUOUS
10
98.5621
20
-140.401
11
98.4193
21
-140.686
0
LINE
8
BLACK
6
CONTINUOUS
10
98.4193
20
-140.686
11
98.2764
21
-140.829
0
LINE
8
BLACK
6
CONTINUOUS
10
98.2764
20
-140.829
11
97.9907
21
-140.972
0
LINE
8
BLACK
6
CONTINUOUS
10
97.9907
20
-140.972
11
97.705
21
-140.972
0
LINE
8
BLACK
6
CONTINUOUS
10
97.705
20
-140.972
11
97.4193
21
-140.829
0
LINE
8
BLACK
6
CONTINUOUS
10
97.4193
20
-140.829
11
97.2764
21
-140.686
0
LINE
8
BLACK
6
CONTINUOUS
10
97.2764
20
-140.686
11
97.1336
21
-140.401
0
LINE
8
BLACK
6
CONTINUOUS
10
97.1336
20
-140.401
11
96.9907
21
-139.829
0
LINE
8
BLACK
6
CONTINUOUS
10
96.9907
20
-139.829
11
96.9907
21
-139.115
0
LINE
8
BLACK
6
CONTINUOUS
10
96.9907
20
-139.115
11
97.1336
21
-138.544
0
LINE
8
BLACK
6
CONTINUOUS
10
97.1336
20
-138.544
11
97.2764
21
-138.258
0
LINE
8
BLACK
6
CONTINUOUS
10
97.2764
20
-138.258
11
97.4193
21
-138.115
0
LINE
8
BLACK
6
CONTINUOUS
10
97.4193
20
-138.115
11
97.705
21
-137.972
0
LINE
8
BLACK
6
CONTINUOUS
10
99.9907
20
-140.686
11
100.134
21
-140.829
0
LINE
8
BLACK
6
CONTINUOUS
10
100.134
20
-140.829
11
99.9907
21
-140.972
0
LINE
8
BLACK
6
CONTINUOUS
10
99.9907
20
-140.972
11
99.8479
21
-140.829
0
LINE
8
BLACK
6
CONTINUOUS
10
99.8479
20
-140.829
11
99.9907
21
-140.686
0
LINE
8
BLACK
6
CONTINUOUS
10
99.9907
20
-140.686
11
99.9907
21
-140.972
0
LINE
8
BLACK
6
CONTINUOUS
10
101.991
20
-137.972
11
102.276
21
-137.972
0
LINE
8
BLACK
6
CONTINUOUS
10
102.276
20
-137.972
11
102.562
21
-138.115
0
LINE
8
BLACK
6
CONTINUOUS
10
102.562
20
-138.115
11
102.705
21
-138.258
0
LINE
8
BLACK
6
CONTINUOUS
10
102.705
20
-138.258
11
102.848
21
-138.544
0
LINE
8
BLACK
6
CONTINUOUS
10
102.848
20
-138.544
11
102.991
21
-139.115
0
LINE
8
BLACK
6
CONTINUOUS
10
102.991
20
-139.115
11
102.991
21
-139.829
0
LINE
8
BLACK
6
CONTINUOUS
10
102.991
20
-139.829
11
102.848
21
-140.401
0
LINE
8
BLACK
6
CONTINUOUS
10
102.848
20
-140.401
11
102.705
21
-140.686
0
LINE
8
BLACK
6
CONTINUOUS
10
102.705
20
-140.686
11
102.562
21
-140.829
0
LINE
8
BLACK
6
CONTINUOUS
10
102.562
20
-140.829
11
102.276
21
-140.972
0
LINE
8
BLACK
6
CONTINUOUS
10
102.276
20
-140.972
11
101.991
21
-140.972
0
LINE
8
BLACK
6
CONTINUOUS
10
101.991
20
-140.972
11
101.705
21
-140.829
0
LINE
8
BLACK
6
CONTINUOUS
10
101.705
20
-140.829
11
101.562
21
-140.686
0
LINE
8
BLACK
6
CONTINUOUS
10
101.562
20
-140.686
11
101.419
21
-140.401
0
LINE
8
BLACK
6
CONTINUOUS
10
101.419
20
-140.401
11
101.276
21
-139.829
0
LINE
8
BLACK
6
CONTINUOUS
10
101.276
20
-139.829
11
101.276
21
-139.115
0
LINE
8
BLACK
6
CONTINUOUS
10
101.276
20
-139.115
11
101.419
21
-138.544
0
LINE
8
BLACK
6
CONTINUOUS
10
101.419
20
-138.544
11
101.562
21
-138.258
0
LINE
8
BLACK
6
CONTINUOUS
10
101.562
20
-138.258
11
101.705
21
-138.115
0
LINE
8
BLACK
6
CONTINUOUS
10
101.705
20
-138.115
11
101.991
21
-137.972
0
LINE
8
BLACK
6
CONTINUOUS
10
103.991
20
-137.972
11
105.848
21
-137.972
0
LINE
8
BLACK
6
CONTINUOUS
10
105.848
20
-137.972
11
104.848
21
-139.115
0
LINE
8
BLACK
6
CONTINUOUS
10
104.848
20
-139.115
11
105.276
21
-139.115
0
LINE
8
BLACK
6
CONTINUOUS
10
105.276
20
-139.115
11
105.562
21
-139.258
0
LINE
8
BLACK
6
CONTINUOUS
10
105.562
20
-139.258
11
105.705
21
-139.401
0
LINE
8
BLACK
6
CONTINUOUS
10
105.705
20
-139.401
11
105.848
21
-139.686
0
LINE
8
BLACK
6
CONTINUOUS
10
105.848
20
-139.686
11
105.848
21
-140.401
0
LINE
8
BLACK
6
CONTINUOUS
10
105.848
20
-140.401
11
105.705
21
-140.686
0
LINE
8
BLACK
6
CONTINUOUS
10
105.705
20
-140.686
11
105.562
21
-140.829
0
LINE
8
BLACK
6
CONTINUOUS
10
105.562
20
-140.829
11
105.276
21
-140.972
0
LINE
8
BLACK
6
CONTINUOUS
10
105.276
20
-140.972
11
104.419
21
-140.972
0
LINE
8
BLACK
6
CONTINUOUS
10
104.419
20
-140.972
11
104.134
21
-140.829
0
LINE
8
BLACK
6
CONTINUOUS
10
104.134
20
-140.829
11
103.991
21
-140.686
0
LINE
8
BLACK
6
CONTINUOUS
10
107.276
20
-140.972
11
107.848
21
-140.972
0
LINE
8
BLACK
6
CONTINUOUS
10
107.848
20
-140.972
11
108.134
21
-140.829
0
LINE
8
BLACK
6
CONTINUOUS
10
108.134
20
-140.829
11
108.276
21
-140.686
0
LINE
8
BLACK
6
CONTINUOUS
10
108.276
20
-140.686
11
108.562
21
-140.258
0
LINE
8
BLACK
6
CONTINUOUS
10
108.562
20
-140.258
11
108.705
21
-139.686
0
LINE
8
BLACK
6
CONTINUOUS
10
108.705
20
-139.686
11
108.705
21
-138.544
0
LINE
8
BLACK
6
CONTINUOUS
10
108.705
20
-138.544
11
108.562
21
-138.258
0
LINE
8
BLACK
6
CONTINUOUS
10
108.562
20
-138.258
11
108.419
21
-138.115
0
LINE
8
BLACK
6
CONTINUOUS
10
108.419
20
-138.115
11
108.134
21
-137.972
0
LINE
8
BLACK
6
CONTINUOUS
10
108.134
20
-137.972
11
107.562
21
-137.972
0
LINE
8
BLACK
6
CONTINUOUS
10
107.562
20
-137.972
11
107.276
21
-138.115
0
LINE
8
BLACK
6
CONTINUOUS
10
107.276
20
-138.115
11
107.134
21
-138.258
0
LINE
8
BLACK
6
CONTINUOUS
10
107.134
20
-138.258
11
106.991
21
-138.544
0
LINE
8
BLACK
6
CONTINUOUS
10
106.991
20
-138.544
11
106.991
21
-139.258
0
LINE
8
BLACK
6
CONTINUOUS
10
106.991
20
-139.258
11
107.134
21
-139.544
0
LINE
8
BLACK
6
CONTINUOUS
10
107.134
20
-139.544
11
107.276
21
-139.686
0
LINE
8
BLACK
6
CONTINUOUS
10
107.276
20
-139.686
11
107.562
21
-139.829
0
LINE
8
BLACK
6
CONTINUOUS
10
107.562
20
-139.829
11
108.134
21
-139.829
0
LINE
8
BLACK
6
CONTINUOUS
10
108.134
20
-139.829
11
108.419
21
-139.686
0
LINE
8
BLACK
6
CONTINUOUS
10
108.419
20
-139.686
11
108.562
21
-139.544
0
LINE
8
BLACK
6
CONTINUOUS
10
108.562
20
-139.544
11
108.705
21
-139.258
0
LINE
8
BLACK
6
CONTINUOUS
10
109.848
20
-137.972
11
109.848
21
-138.544
0
LINE
8
BLACK
6
CONTINUOUS
10
110.991
20
-137.972
11
110.991
21
-138.544
0
LINE
8
BLACK
6
CONTINUOUS
10
115.419
20
-142.115
11
115.276
21
-141.972
0
LINE
8
BLACK
6
CONTINUOUS
10
115.276
20
-141.972
11
114.991
21
-141.544
0
LINE
8
BLACK
6
CONTINUOUS
10
114.991
20
-141.544
11
114.848
21
-141.258
0
LINE
8
BLACK
6
CONTINUOUS
10
114.848
20
-141.258
11
114.705
21
-140.829
0
LINE
8
BLACK
6
CONTINUOUS
10
114.705
20
-140.829
11
114.562
21
-140.115
0
LINE
8
BLACK
6
CONTINUOUS
10
114.562
20
-140.115
11
114.562
21
-139.544
0
LINE
8
BLACK
6
CONTINUOUS
10
114.562
20
-139.544
11
114.705
21
-138.829
0
LINE
8
BLACK
6
CONTINUOUS
10
114.705
20
-138.829
11
114.848
21
-138.401
0
LINE
8
BLACK
6
CONTINUOUS
10
114.848
20
-138.401
11
114.991
21
-138.115
0
LINE
8
BLACK
6
CONTINUOUS
10
114.991
20
-138.115
11
115.276
21
-137.686
0
LINE
8
BLACK
6
CONTINUOUS
10
115.276
20
-137.686
11
115.419
21
-137.544
0
LINE
8
BLACK
6
CONTINUOUS
10
117.848
20
-138.972
11
117.848
21
-140.972
0
LINE
8
BLACK
6
CONTINUOUS
10
117.134
20
-137.829
11
116.419
21
-139.972
0
LINE
8
BLACK
6
CONTINUOUS
10
116.419
20
-139.972
11
118.276
21
-139.972
0
LINE
8
BLACK
6
CONTINUOUS
10
120.991
20
-140.972
11
119.276
21
-140.972
0
LINE
8
BLACK
6
CONTINUOUS
10
120.134
20
-140.972
11
120.134
21
-137.972
0
LINE
8
BLACK
6
CONTINUOUS
10
120.134
20
-137.972
11
119.848
21
-138.401
0
LINE
8
BLACK
6
CONTINUOUS
10
119.848
20
-138.401
11
119.562
21
-138.686
0
LINE
8
BLACK
6
CONTINUOUS
10
119.562
20
-138.686
11
119.276
21
-138.829
0
LINE
8
BLACK
6
CONTINUOUS
10
124.562
20
-140.972
11
124.562
21
-137.972
0
LINE
8
BLACK
6
CONTINUOUS
10
125.848
20
-140.972
11
125.848
21
-139.401
0
LINE
8
BLACK
6
CONTINUOUS
10
125.848
20
-139.401
11
125.705
21
-139.115
0
LINE
8
BLACK
6
CONTINUOUS
10
125.705
20
-139.115
11
125.419
21
-138.972
0
LINE
8
BLACK
6
CONTINUOUS
10
125.419
20
-138.972
11
124.991
21
-138.972
0
LINE
8
BLACK
6
CONTINUOUS
10
124.991
20
-138.972
11
124.705
21
-139.115
0
LINE
8
BLACK
6
CONTINUOUS
10
124.705
20
-139.115
11
124.562
21
-139.258
0
LINE
8
BLACK
6
CONTINUOUS
10
127.705
20
-140.972
11
127.419
21
-140.829
0
LINE
8
BLACK
6
CONTINUOUS
10
127.419
20
-140.829
11
127.276
21
-140.686
0
LINE
8
BLACK
6
CONTINUOUS
10
127.276
20
-140.686
11
127.134
21
-140.401
0
LINE
8
BLACK
6
CONTINUOUS
10
127.134
20
-140.401
11
127.134
21
-139.544
0
LINE
8
BLACK
6
CONTINUOUS
10
127.134
20
-139.544
11
127.276
21
-139.258
0
LINE
8
BLACK
6
CONTINUOUS
10
127.276
20
-139.258
11
127.419
21
-139.115
0
LINE
8
BLACK
6
CONTINUOUS
10
127.419
20
-139.115
11
127.705
21
-138.972
0
LINE
8
BLACK
6
CONTINUOUS
10
127.705
20
-138.972
11
128.134
21
-138.972
0
LINE
8
BLACK
6
CONTINUOUS
10
128.134
20
-138.972
11
128.419
21
-139.115
0
LINE
8
BLACK
6
CONTINUOUS
10
128.419
20
-139.115
11
128.562
21
-139.258
0
LINE
8
BLACK
6
CONTINUOUS
10
128.562
20
-139.258
11
128.705
21
-139.544
0
LINE
8
BLACK
6
CONTINUOUS
10
128.705
20
-139.544
11
128.705
21
-140.401
0
LINE
8
BLACK
6
CONTINUOUS
10
128.705
20
-140.401
11
128.562
21
-140.686
0
LINE
8
BLACK
6
CONTINUOUS
10
128.562
20
-140.686
11
128.419
21
-140.829
0
LINE
8
BLACK
6
CONTINUOUS
10
128.419
20
-140.829
11
128.134
21
-140.972
0
LINE
8
BLACK
6
CONTINUOUS
10
128.134
20
-140.972
11
127.705
21
-140.972
0
LINE
8
BLACK
6
CONTINUOUS
10
130.419
20
-140.972
11
130.134
21
-140.829
0
LINE
8
BLACK
6
CONTINUOUS
10
130.134
20
-140.829
11
129.991
21
-140.544
0
LINE
8
BLACK
6
CONTINUOUS
10
129.991
20
-140.544
11
129.991
21
-137.972
0
LINE
8
BLACK
6
CONTINUOUS
10
132.705
20
-140.829
11
132.419
21
-140.972
0
LINE
8
BLACK
6
CONTINUOUS
10
132.419
20
-140.972
11
131.848
21
-140.972
0
LINE
8
BLACK
6
CONTINUOUS
10
131.848
20
-140.972
11
131.562
21
-140.829
0
LINE
8
BLACK
6
CONTINUOUS
10
131.562
20
-140.829
11
131.419
21
-140.544
0
LINE
8
BLACK
6
CONTINUOUS
10
131.419
20
-140.544
11
131.419
21
-139.401
0
LINE
8
BLACK
6
CONTINUOUS
10
131.419
20
-139.401
11
131.562
21
-139.115
0
LINE
8
BLACK
6
CONTINUOUS
10
131.562
20
-139.115
11
131.848
21
-138.972
0
LINE
8
BLACK
6
CONTINUOUS
10
131.848
20
-138.972
11
132.419
21
-138.972
0
LINE
8
BLACK
6
CONTINUOUS
10
132.419
20
-138.972
11
132.705
21
-139.115
0
LINE
8
BLACK
6
CONTINUOUS
10
132.705
20
-139.115
11
132.848
21
-139.401
0
LINE
8
BLACK
6
CONTINUOUS
10
132.848
20
-139.401
11
132.848
21
-139.686
0
LINE
8
BLACK
6
CONTINUOUS
10
132.848
20
-139.686
11
131.419
21
-139.972
0
LINE
8
BLACK
6
CONTINUOUS
10
133.991
20
-140.829
11
134.276
21
-140.972
0
LINE
8
BLACK
6
CONTINUOUS
10
134.276
20
-140.972
11
134.848
21
-140.972
0
LINE
8
BLACK
6
CONTINUOUS
10
134.848
20
-140.972
11
135.134
21
-140.829
0
LINE
8
BLACK
6
CONTINUOUS
10
135.134
20
-140.829
11
135.276
21
-140.544
0
LINE
8
BLACK
6
CONTINUOUS
10
135.276
20
-140.544
11
135.276
21
-140.401
0
LINE
8
BLACK
6
CONTINUOUS
10
135.276
20
-140.401
11
135.134
21
-140.115
0
LINE
8
BLACK
6
CONTINUOUS
10
135.134
20
-140.115
11
134.848
21
-139.972
0
LINE
8
BLACK
6
CONTINUOUS
10
134.848
20
-139.972
11
134.419
21
-139.972
0
LINE
8
BLACK
6
CONTINUOUS
10
134.419
20
-139.972
11
134.134
21
-139.829
0
LINE
8
BLACK
6
CONTINUOUS
10
134.134
20
-139.829
11
133.991
21
-139.544
0
LINE
8
BLACK
6
CONTINUOUS
10
133.991
20
-139.544
11
133.991
21
-139.401
0
LINE
8
BLACK
6
CONTINUOUS
10
133.991
20
-139.401
11
134.134
21
-139.115
0
LINE
8
BLACK
6
CONTINUOUS
10
134.134
20
-139.115
11
134.419
21
-138.972
0
LINE
8
BLACK
6
CONTINUOUS
10
134.419
20
-138.972
11
134.848
21
-138.972
0
LINE
8
BLACK
6
CONTINUOUS
10
134.848
20
-138.972
11
135.134
21
-139.115
0
LINE
8
BLACK
6
CONTINUOUS
10
136.276
20
-142.115
11
136.419
21
-141.972
0
LINE
8
BLACK
6
CONTINUOUS
10
136.419
20
-141.972
11
136.705
21
-141.544
0
LINE
8
BLACK
6
CONTINUOUS
10
136.705
20
-141.544
11
136.848
21
-141.258
0
LINE
8
BLACK
6
CONTINUOUS
10
136.848
20
-141.258
11
136.991
21
-140.829
0
LINE
8
BLACK
6
CONTINUOUS
10
136.991
20
-140.829
11
137.134
21
-140.115
0
LINE
8
BLACK
6
CONTINUOUS
10
137.134
20
-140.115
11
137.134
21
-139.544
0
LINE
8
BLACK
6
CONTINUOUS
10
137.134
20
-139.544
11
136.991
21
-138.829
0
LINE
8
BLACK
6
CONTINUOUS
10
136.991
20
-138.829
11
136.848
21
-138.401
0
LINE
8
BLACK
6
CONTINUOUS
10
136.848
20
-138.401
11
136.705
21
-138.115
0
LINE
8
BLACK
6
CONTINUOUS
10
136.705
20
-138.115
11
136.419
21
-137.686
0
LINE
8
BLACK
6
CONTINUOUS
10
136.419
20
-137.686
11
136.276
21
-137.544
0
LINE
8
BLACK
6
CONTINUOUS
10
68.005
20
-144.125
11
68.555
21
-143.575
0
LINE
8
BLACK
6
CONTINUOUS
10
68.555
20
-143.575
11
68.005
21
-143.025
0
LINE
8
BLACK
6
CONTINUOUS
10
68.005
20
-143.025
11
67.455
21
-143.575
0
LINE
8
BLACK
6
CONTINUOUS
10
67.455
20
-143.575
11
68.005
21
-144.125
0
LINE
8
BLACK
6
CONTINUOUS
10
72.9907
20
-144.932
11
71.2764
21
-144.932
0
LINE
8
BLACK
6
CONTINUOUS
10
72.1336
20
-144.932
11
72.1336
21
-141.932
0
LINE
8
BLACK
6
CONTINUOUS
10
72.1336
20
-141.932
11
71.8479
21
-142.361
0
LINE
8
BLACK
6
CONTINUOUS
10
71.8479
20
-142.361
11
71.5621
21
-142.646
0
LINE
8
BLACK
6
CONTINUOUS
10
71.5621
20
-142.646
11
71.2764
21
-142.789
0
LINE
8
BLACK
6
CONTINUOUS
10
74.2764
20
-144.646
11
74.4193
21
-144.789
0
LINE
8
BLACK
6
CONTINUOUS
10
74.4193
20
-144.789
11
74.2764
21
-144.932
0
LINE
8
BLACK
6
CONTINUOUS
10
74.2764
20
-144.932
11
74.1336
21
-144.789
0
LINE
8
BLACK
6
CONTINUOUS
10
74.1336
20
-144.789
11
74.2764
21
-144.646
0
LINE
8
BLACK
6
CONTINUOUS
10
74.2764
20
-144.646
11
74.2764
21
-144.932
0
LINE
8
BLACK
6
CONTINUOUS
10
77.2764
20
-144.932
11
75.5621
21
-144.932
0
LINE
8
BLACK
6
CONTINUOUS
10
76.4193
20
-144.932
11
76.4193
21
-141.932
0
LINE
8
BLACK
6
CONTINUOUS
10
76.4193
20
-141.932
11
76.1336
21
-142.361
0
LINE
8
BLACK
6
CONTINUOUS
10
76.1336
20
-142.361
11
75.8479
21
-142.646
0
LINE
8
BLACK
6
CONTINUOUS
10
75.8479
20
-142.646
11
75.5621
21
-142.789
0
LINE
8
BLACK
6
CONTINUOUS
10
79.1336
20
-141.932
11
79.4193
21
-141.932
0
LINE
8
BLACK
6
CONTINUOUS
10
79.4193
20
-141.932
11
79.705
21
-142.075
0
LINE
8
BLACK
6
CONTINUOUS
10
79.705
20
-142.075
11
79.8479
21
-142.218
0
LINE
8
BLACK
6
CONTINUOUS
10
79.8479
20
-142.218
11
79.9907
21
-142.504
0
LINE
8
BLACK
6
CONTINUOUS
10
79.9907
20
-142.504
11
80.1336
21
-143.075
0
LINE
8
BLACK
6
CONTINUOUS
10
80.1336
20
-143.075
11
80.1336
21
-143.789
0
LINE
8
BLACK
6
CONTINUOUS
10
80.1336
20
-143.789
11
79.9907
21
-144.361
0
LINE
8
BLACK
6
CONTINUOUS
10
79.9907
20
-144.361
11
79.8479
21
-144.646
0
LINE
8
BLACK
6
CONTINUOUS
10
79.8479
20
-144.646
11
79.705
21
-144.789
0
LINE
8
BLACK
6
CONTINUOUS
10
79.705
20
-144.789
11
79.4193
21
-144.932
0
LINE
8
BLACK
6
CONTINUOUS
10
79.4193
20
-144.932
11
79.1336
21
-144.932
0
LINE
8
BLACK
6
CONTINUOUS
10
79.1336
20
-144.932
11
78.8479
21
-144.789
0
LINE
8
BLACK
6
CONTINUOUS
10
78.8479
20
-144.789
11
78.705
21
-144.646
0
LINE
8
BLACK
6
CONTINUOUS
10
78.705
20
-144.646
11
78.5621
21
-144.361
0
LINE
8
BLACK
6
CONTINUOUS
10
78.5621
20
-144.361
11
78.4193
21
-143.789
0
LINE
8
BLACK
6
CONTINUOUS
10
78.4193
20
-143.789
11
78.4193
21
-143.075
0
LINE
8
BLACK
6
CONTINUOUS
10
78.4193
20
-143.075
11
78.5621
21
-142.504
0
LINE
8
BLACK
6
CONTINUOUS
10
78.5621
20
-142.504
11
78.705
21
-142.218
0
LINE
8
BLACK
6
CONTINUOUS
10
78.705
20
-142.218
11
78.8479
21
-142.075
0
LINE
8
BLACK
6
CONTINUOUS
10
78.8479
20
-142.075
11
79.1336
21
-141.932
0
LINE
8
BLACK
6
CONTINUOUS
10
81.4193
20
-144.932
11
81.4193
21
-142.932
0
LINE
8
BLACK
6
CONTINUOUS
10
81.4193
20
-143.218
11
81.5621
21
-143.075
0
LINE
8
BLACK
6
CONTINUOUS
10
81.5621
20
-143.075
11
81.8479
21
-142.932
0
LINE
8
BLACK
6
CONTINUOUS
10
81.8479
20
-142.932
11
82.2764
21
-142.932
0
LINE
8
BLACK
6
CONTINUOUS
10
82.2764
20
-142.932
11
82.5621
21
-143.075
0
LINE
8
BLACK
6
CONTINUOUS
10
82.5621
20
-143.075
11
82.705
21
-143.361
0
LINE
8
BLACK
6
CONTINUOUS
10
82.705
20
-143.361
11
82.705
21
-144.932
0
LINE
8
BLACK
6
CONTINUOUS
10
82.705
20
-143.361
11
82.8479
21
-143.075
0
LINE
8
BLACK
6
CONTINUOUS
10
82.8479
20
-143.075
11
83.1336
21
-142.932
0
LINE
8
BLACK
6
CONTINUOUS
10
83.1336
20
-142.932
11
83.5621
21
-142.932
0
LINE
8
BLACK
6
CONTINUOUS
10
83.5621
20
-142.932
11
83.8479
21
-143.075
0
LINE
8
BLACK
6
CONTINUOUS
10
83.8479
20
-143.075
11
83.9907
21
-143.361
0
LINE
8
BLACK
6
CONTINUOUS
10
83.9907
20
-143.361
11
83.9907
21
-144.932
0
LINE
8
BLACK
6
CONTINUOUS
10
85.4193
20
-144.932
11
85.4193
21
-142.932
0
LINE
8
BLACK
6
CONTINUOUS
10
85.4193
20
-143.218
11
85.5621
21
-143.075
0
LINE
8
BLACK
6
CONTINUOUS
10
85.5621
20
-143.075
11
85.8479
21
-142.932
0
LINE
8
BLACK
6
CONTINUOUS
10
85.8479
20
-142.932
11
86.2764
21
-142.932
0
LINE
8
BLACK
6
CONTINUOUS
10
86.2764
20
-142.932
11
86.5621
21
-143.075
0
LINE
8
BLACK
6
CONTINUOUS
10
86.5621
20
-143.075
11
86.705
21
-143.361
0
LINE
8
BLACK
6
CONTINUOUS
10
86.705
20
-143.361
11
86.705
21
-144.932
0
LINE
8
BLACK
6
CONTINUOUS
10
86.705
20
-143.361
11
86.8479
21
-143.075
0
LINE
8
BLACK
6
CONTINUOUS
10
86.8479
20
-143.075
11
87.1336
21
-142.932
0
LINE
8
BLACK
6
CONTINUOUS
10
87.1336
20
-142.932
11
87.5621
21
-142.932
0
LINE
8
BLACK
6
CONTINUOUS
10
87.5621
20
-142.932
11
87.8479
21
-143.075
0
LINE
8
BLACK
6
CONTINUOUS
10
87.8479
20
-143.075
11
87.9907
21
-143.361
0
LINE
8
BLACK
6
CONTINUOUS
10
87.9907
20
-143.361
11
87.9907
21
-144.932
0
LINE
8
BLACK
6
CONTINUOUS
10
93.8479
20
-141.789
11
91.2764
21
-145.646
0
LINE
8
BLACK
6
CONTINUOUS
10
97.705
20
-141.932
11
97.9907
21
-141.932
0
LINE
8
BLACK
6
CONTINUOUS
10
97.9907
20
-141.932
11
98.2764
21
-142.075
0
LINE
8
BLACK
6
CONTINUOUS
10
98.2764
20
-142.075
11
98.4193
21
-142.218
0
LINE
8
BLACK
6
CONTINUOUS
10
98.4193
20
-142.218
11
98.5621
21
-142.504
0
LINE
8
BLACK
6
CONTINUOUS
10
98.5621
20
-142.504
11
98.705
21
-143.075
0
LINE
8
BLACK
6
CONTINUOUS
10
98.705
20
-143.075
11
98.705
21
-143.789
0
LINE
8
BLACK
6
CONTINUOUS
10
98.705
20
-143.789
11
98.5621
21
-144.361
0
LINE
8
BLACK
6
CONTINUOUS
10
98.5621
20
-144.361
11
98.4193
21
-144.646
0
LINE
8
BLACK
6
CONTINUOUS
10
98.4193
20
-144.646
11
98.2764
21
-144.789
0
LINE
8
BLACK
6
CONTINUOUS
10
98.2764
20
-144.789
11
97.9907
21
-144.932
0
LINE
8
BLACK
6
CONTINUOUS
10
97.9907
20
-144.932
11
97.705
21
-144.932
0
LINE
8
BLACK
6
CONTINUOUS
10
97.705
20
-144.932
11
97.4193
21
-144.789
0
LINE
8
BLACK
6
CONTINUOUS
10
97.4193
20
-144.789
11
97.2764
21
-144.646
0
LINE
8
BLACK
6
CONTINUOUS
10
97.2764
20
-144.646
11
97.1336
21
-144.361
0
LINE
8
BLACK
6
CONTINUOUS
10
97.1336
20
-144.361
11
96.9907
21
-143.789
0
LINE
8
BLACK
6
CONTINUOUS
10
96.9907
20
-143.789
11
96.9907
21
-143.075
0
LINE
8
BLACK
6
CONTINUOUS
10
96.9907
20
-143.075
11
97.1336
21
-142.504
0
LINE
8
BLACK
6
CONTINUOUS
10
97.1336
20
-142.504
11
97.2764
21
-142.218
0
LINE
8
BLACK
6
CONTINUOUS
10
97.2764
20
-142.218
11
97.4193
21
-142.075
0
LINE
8
BLACK
6
CONTINUOUS
10
97.4193
20
-142.075
11
97.705
21
-141.932
0
LINE
8
BLACK
6
CONTINUOUS
10
99.9907
20
-144.646
11
100.134
21
-144.789
0
LINE
8
BLACK
6
CONTINUOUS
10
100.134
20
-144.789
11
99.9907
21
-144.932
0
LINE
8
BLACK
6
CONTINUOUS
10
99.9907
20
-144.932
11
99.8479
21
-144.789
0
LINE
8
BLACK
6
CONTINUOUS
10
99.8479
20
-144.789
11
99.9907
21
-144.646
0
LINE
8
BLACK
6
CONTINUOUS
10
99.9907
20
-144.646
11
99.9907
21
-144.932
0
LINE
8
BLACK
6
CONTINUOUS
10
101.991
20
-141.932
11
102.276
21
-141.932
0
LINE
8
BLACK
6
CONTINUOUS
10
102.276
20
-141.932
11
102.562
21
-142.075
0
LINE
8
BLACK
6
CONTINUOUS
10
102.562
20
-142.075
11
102.705
21
-142.218
0
LINE
8
BLACK
6
CONTINUOUS
10
102.705
20
-142.218
11
102.848
21
-142.504
0
LINE
8
BLACK
6
CONTINUOUS
10
102.848
20
-142.504
11
102.991
21
-143.075
0
LINE
8
BLACK
6
CONTINUOUS
10
102.991
20
-143.075
11
102.991
21
-143.789
0
LINE
8
BLACK
6
CONTINUOUS
10
102.991
20
-143.789
11
102.848
21
-144.361
0
LINE
8
BLACK
6
CONTINUOUS
10
102.848
20
-144.361
11
102.705
21
-144.646
0
LINE
8
BLACK
6
CONTINUOUS
10
102.705
20
-144.646
11
102.562
21
-144.789
0
LINE
8
BLACK
6
CONTINUOUS
10
102.562
20
-144.789
11
102.276
21
-144.932
0
LINE
8
BLACK
6
CONTINUOUS
10
102.276
20
-144.932
11
101.991
21
-144.932
0
LINE
8
BLACK
6
CONTINUOUS
10
101.991
20
-144.932
11
101.705
21
-144.789
0
LINE
8
BLACK
6
CONTINUOUS
10
101.705
20
-144.789
11
101.562
21
-144.646
0
LINE
8
BLACK
6
CONTINUOUS
10
101.562
20
-144.646
11
101.419
21
-144.361
0
LINE
8
BLACK
6
CONTINUOUS
10
101.419
20
-144.361
11
101.276
21
-143.789
0
LINE
8
BLACK
6
CONTINUOUS
10
101.276
20
-143.789
11
101.276
21
-143.075
0
LINE
8
BLACK
6
CONTINUOUS
10
101.276
20
-143.075
11
101.419
21
-142.504
0
LINE
8
BLACK
6
CONTINUOUS
10
101.419
20
-142.504
11
101.562
21
-142.218
0
LINE
8
BLACK
6
CONTINUOUS
10
101.562
20
-142.218
11
101.705
21
-142.075
0
LINE
8
BLACK
6
CONTINUOUS
10
101.705
20
-142.075
11
101.991
21
-141.932
0
LINE
8
BLACK
6
CONTINUOUS
10
105.562
20
-142.932
11
105.562
21
-144.932
0
LINE
8
BLACK
6
CONTINUOUS
10
104.848
20
-141.789
11
104.134
21
-143.932
0
LINE
8
BLACK
6
CONTINUOUS
10
104.134
20
-143.932
11
105.991
21
-143.932
0
LINE
8
BLACK
6
CONTINUOUS
10
106.848
20
-141.932
11
108.705
21
-141.932
0
LINE
8
BLACK
6
CONTINUOUS
10
108.705
20
-141.932
11
107.705
21
-143.075
0
LINE
8
BLACK
6
CONTINUOUS
10
107.705
20
-143.075
11
108.134
21
-143.075
0
LINE
8
BLACK
6
CONTINUOUS
10
108.134
20
-143.075
11
108.419
21
-143.218
0
LINE
8
BLACK
6
CONTINUOUS
10
108.419
20
-143.218
11
108.562
21
-143.361
0
LINE
8
BLACK
6
CONTINUOUS
10
108.562
20
-143.361
11
108.705
21
-143.646
0
LINE
8
BLACK
6
CONTINUOUS
10
108.705
20
-143.646
11
108.705
21
-144.361
0
LINE
8
BLACK
6
CONTINUOUS
10
108.705
20
-144.361
11
108.562
21
-144.646
0
LINE
8
BLACK
6
CONTINUOUS
10
108.562
20
-144.646
11
108.419
21
-144.789
0
LINE
8
BLACK
6
CONTINUOUS
10
108.419
20
-144.789
11
108.134
21
-144.932
0
LINE
8
BLACK
6
CONTINUOUS
10
108.134
20
-144.932
11
107.276
21
-144.932
0
LINE
8
BLACK
6
CONTINUOUS
10
107.276
20
-144.932
11
106.991
21
-144.789
0
LINE
8
BLACK
6
CONTINUOUS
10
106.991
20
-144.789
11
106.848
21
-144.646
0
LINE
8
BLACK
6
CONTINUOUS
10
109.848
20
-141.932
11
109.848
21
-142.504
0
LINE
8
BLACK
6
CONTINUOUS
10
110.991
20
-141.932
11
110.991
21
-142.504
0
LINE
8
BLACK
6
CONTINUOUS
10
115.419
20
-146.075
11
115.276
21
-145.932
0
LINE
8
BLACK
6
CONTINUOUS
10
115.276
20
-145.932
11
114.991
21
-145.504
0
LINE
8
BLACK
6
CONTINUOUS
10
114.991
20
-145.504
11
114.848
21
-145.218
0
LINE
8
BLACK
6
CONTINUOUS
10
114.848
20
-145.218
11
114.705
21
-144.789
0
LINE
8
BLACK
6
CONTINUOUS
10
114.705
20
-144.789
11
114.562
21
-144.075
0
LINE
8
BLACK
6
CONTINUOUS
10
114.562
20
-144.075
11
114.562
21
-143.504
0
LINE
8
BLACK
6
CONTINUOUS
10
114.562
20
-143.504
11
114.705
21
-142.789
0
LINE
8
BLACK
6
CONTINUOUS
10
114.705
20
-142.789
11
114.848
21
-142.361
0
LINE
8
BLACK
6
CONTINUOUS
10
114.848
20
-142.361
11
114.991
21
-142.075
0
LINE
8
BLACK
6
CONTINUOUS
10
114.991
20
-142.075
11
115.276
21
-141.646
0
LINE
8
BLACK
6
CONTINUOUS
10
115.276
20
-141.646
11
115.419
21
-141.504
0
LINE
8
BLACK
6
CONTINUOUS
10
118.134
20
-144.932
11
116.419
21
-144.932
0
LINE
8
BLACK
6
CONTINUOUS
10
117.276
20
-144.932
11
117.276
21
-141.932
0
LINE
8
BLACK
6
CONTINUOUS
10
117.276
20
-141.932
11
116.991
21
-142.361
0
LINE
8
BLACK
6
CONTINUOUS
10
116.991
20
-142.361
11
116.705
21
-142.646
0
LINE
8
BLACK
6
CONTINUOUS
10
116.705
20
-142.646
11
116.419
21
-142.789
0
LINE
8
BLACK
6
CONTINUOUS
10
119.848
20
-143.218
11
119.562
21
-143.075
0
LINE
8
BLACK
6
CONTINUOUS
10
119.562
20
-143.075
11
119.419
21
-142.932
0
LINE
8
BLACK
6
CONTINUOUS
10
119.419
20
-142.932
11
119.276
21
-142.646
0
LINE
8
BLACK
6
CONTINUOUS
10
119.276
20
-142.646
11
119.276
21
-142.504
0
LINE
8
BLACK
6
CONTINUOUS
10
119.276
20
-142.504
11
119.419
21
-142.218
0
LINE
8
BLACK
6
CONTINUOUS
10
119.419
20
-142.218
11
119.562
21
-142.075
0
LINE
8
BLACK
6
CONTINUOUS
10
119.562
20
-142.075
11
119.848
21
-141.932
0
LINE
8
BLACK
6
CONTINUOUS
10
119.848
20
-141.932
11
120.419
21
-141.932
0
LINE
8
BLACK
6
CONTINUOUS
10
120.419
20
-141.932
11
120.705
21
-142.075
0
LINE
8
BLACK
6
CONTINUOUS
10
120.705
20
-142.075
11
120.848
21
-142.218
0
LINE
8
BLACK
6
CONTINUOUS
10
120.848
20
-142.218
11
120.991
21
-142.504
0
LINE
8
BLACK
6
CONTINUOUS
10
120.991
20
-142.504
11
120.991
21
-142.646
0
LINE
8
BLACK
6
CONTINUOUS
10
120.991
20
-142.646
11
120.848
21
-142.932
0
LINE
8
BLACK
6
CONTINUOUS
10
120.848
20
-142.932
11
120.705
21
-143.075
0
LINE
8
BLACK
6
CONTINUOUS
10
120.705
20
-143.075
11
120.419
21
-143.218
0
LINE
8
BLACK
6
CONTINUOUS
10
120.419
20
-143.218
11
119.848
21
-143.218
0
LINE
8
BLACK
6
CONTINUOUS
10
119.848
20
-143.218
11
119.562
21
-143.361
0
LINE
8
BLACK
6
CONTINUOUS
10
119.562
20
-143.361
11
119.419
21
-143.504
0
LINE
8
BLACK
6
CONTINUOUS
10
119.419
20
-143.504
11
119.276
21
-143.789
0
LINE
8
BLACK
6
CONTINUOUS
10
119.276
20
-143.789
11
119.276
21
-144.361
0
LINE
8
BLACK
6
CONTINUOUS
10
119.276
20
-144.361
11
119.419
21
-144.646
0
LINE
8
BLACK
6
CONTINUOUS
10
119.419
20
-144.646
11
119.562
21
-144.789
0
LINE
8
BLACK
6
CONTINUOUS
10
119.562
20
-144.789
11
119.848
21
-144.932
0
LINE
8
BLACK
6
CONTINUOUS
10
119.848
20
-144.932
11
120.419
21
-144.932
0
LINE
8
BLACK
6
CONTINUOUS
10
120.419
20
-144.932
11
120.705
21
-144.789
0
LINE
8
BLACK
6
CONTINUOUS
10
120.705
20
-144.789
11
120.848
21
-144.646
0
LINE
8
BLACK
6
CONTINUOUS
10
120.848
20
-144.646
11
120.991
21
-144.361
0
LINE
8
BLACK
6
CONTINUOUS
10
120.991
20
-144.361
11
120.991
21
-143.789
0
LINE
8
BLACK
6
CONTINUOUS
10
120.991
20
-143.789
11
120.848
21
-143.504
0
LINE
8
BLACK
6
CONTINUOUS
10
120.848
20
-143.504
11
120.705
21
-143.361
0
LINE
8
BLACK
6
CONTINUOUS
10
120.705
20
-143.361
11
120.419
21
-143.218
0
LINE
8
BLACK
6
CONTINUOUS
10
124.562
20
-144.932
11
124.562
21
-141.932
0
LINE
8
BLACK
6
CONTINUOUS
10
125.848
20
-144.932
11
125.848
21
-143.361
0
LINE
8
BLACK
6
CONTINUOUS
10
125.848
20
-143.361
11
125.705
21
-143.075
0
LINE
8
BLACK
6
CONTINUOUS
10
125.705
20
-143.075
11
125.419
21
-142.932
0
LINE
8
BLACK
6
CONTINUOUS
10
125.419
20
-142.932
11
124.991
21
-142.932
0
LINE
8
BLACK
6
CONTINUOUS
10
124.991
20
-142.932
11
124.705
21
-143.075
0
LINE
8
BLACK
6
CONTINUOUS
10
124.705
20
-143.075
11
124.562
21
-143.218
0
LINE
8
BLACK
6
CONTINUOUS
10
127.705
20
-144.932
11
127.419
21
-144.789
0
LINE
8
BLACK
6
CONTINUOUS
10
127.419
20
-144.789
11
127.276
21
-144.646
0
LINE
8
BLACK
6
CONTINUOUS
10
127.276
20
-144.646
11
127.134
21
-144.361
0
LINE
8
BLACK
6
CONTINUOUS
10
127.134
20
-144.361
11
127.134
21
-143.504
0
LINE
8
BLACK
6
CONTINUOUS
10
127.134
20
-143.504
11
127.276
21
-143.218
0
LINE
8
BLACK
6
CONTINUOUS
10
127.276
20
-143.218
11
127.419
21
-143.075
0
LINE
8
BLACK
6
CONTINUOUS
10
127.419
20
-143.075
11
127.705
21
-142.932
0
LINE
8
BLACK
6
CONTINUOUS
10
127.705
20
-142.932
11
128.134
21
-142.932
0
LINE
8
BLACK
6
CONTINUOUS
10
128.134
20
-142.932
11
128.419
21
-143.075
0
LINE
8
BLACK
6
CONTINUOUS
10
128.419
20
-143.075
11
128.562
21
-143.218
0
LINE
8
BLACK
6
CONTINUOUS
10
128.562
20
-143.218
11
128.705
21
-143.504
0
LINE
8
BLACK
6
CONTINUOUS
10
128.705
20
-143.504
11
128.705
21
-144.361
0
LINE
8
BLACK
6
CONTINUOUS
10
128.705
20
-144.361
11
128.562
21
-144.646
0
LINE
8
BLACK
6
CONTINUOUS
10
128.562
20
-144.646
11
128.419
21
-144.789
0
LINE
8
BLACK
6
CONTINUOUS
10
128.419
20
-144.789
11
128.134
21
-144.932
0
LINE
8
BLACK
6
CONTINUOUS
10
128.134
20
-144.932
11
127.705
21
-144.932
0
LINE
8
BLACK
6
CONTINUOUS
10
130.419
20
-144.932
11
130.134
21
-144.789
0
LINE
8
BLACK
6
CONTINUOUS
10
130.134
20
-144.789
11
129.991
21
-144.504
0
LINE
8
BLACK
6
CONTINUOUS
10
129.991
20
-144.504
11
129.991
21
-141.932
0
LINE
8
BLACK
6
CONTINUOUS
10
132.705
20
-144.789
11
132.419
21
-144.932
0
LINE
8
BLACK
6
CONTINUOUS
10
132.419
20
-144.932
11
131.848
21
-144.932
0
LINE
8
BLACK
6
CONTINUOUS
10
131.848
20
-144.932
11
131.562
21
-144.789
0
LINE
8
BLACK
6
CONTINUOUS
10
131.562
20
-144.789
11
131.419
21
-144.504
0
LINE
8
BLACK
6
CONTINUOUS
10
131.419
20
-144.504
11
131.419
21
-143.361
0
LINE
8
BLACK
6
CONTINUOUS
10
131.419
20
-143.361
11
131.562
21
-143.075
0
LINE
8
BLACK
6
CONTINUOUS
10
131.562
20
-143.075
11
131.848
21
-142.932
0
LINE
8
BLACK
6
CONTINUOUS
10
131.848
20
-142.932
11
132.419
21
-142.932
0
LINE
8
BLACK
6
CONTINUOUS
10
132.419
20
-142.932
11
132.705
21
-143.075
0
LINE
8
BLACK
6
CONTINUOUS
10
132.705
20
-143.075
11
132.848
21
-143.361
0
LINE
8
BLACK
6
CONTINUOUS
10
132.848
20
-143.361
11
132.848
21
-143.646
0
LINE
8
BLACK
6
CONTINUOUS
10
132.848
20
-143.646
11
131.419
21
-143.932
0
LINE
8
BLACK
6
CONTINUOUS
10
133.991
20
-144.789
11
134.276
21
-144.932
0
LINE
8
BLACK
6
CONTINUOUS
10
134.276
20
-144.932
11
134.848
21
-144.932
0
LINE
8
BLACK
6
CONTINUOUS
10
134.848
20
-144.932
11
135.134
21
-144.789
0
LINE
8
BLACK
6
CONTINUOUS
10
135.134
20
-144.789
11
135.276
21
-144.504
0
LINE
8
BLACK
6
CONTINUOUS
10
135.276
20
-144.504
11
135.276
21
-144.361
0
LINE
8
BLACK
6
CONTINUOUS
10
135.276
20
-144.361
11
135.134
21
-144.075
0
LINE
8
BLACK
6
CONTINUOUS
10
135.134
20
-144.075
11
134.848
21
-143.932
0
LINE
8
BLACK
6
CONTINUOUS
10
134.848
20
-143.932
11
134.419
21
-143.932
0
LINE
8
BLACK
6
CONTINUOUS
10
134.419
20
-143.932
11
134.134
21
-143.789
0
LINE
8
BLACK
6
CONTINUOUS
10
134.134
20
-143.789
11
133.991
21
-143.504
0
LINE
8
BLACK
6
CONTINUOUS
10
133.991
20
-143.504
11
133.991
21
-143.361
0
LINE
8
BLACK
6
CONTINUOUS
10
133.991
20
-143.361
11
134.134
21
-143.075
0
LINE
8
BLACK
6
CONTINUOUS
10
134.134
20
-143.075
11
134.419
21
-142.932
0
LINE
8
BLACK
6
CONTINUOUS
10
134.419
20
-142.932
11
134.848
21
-142.932
0
LINE
8
BLACK
6
CONTINUOUS
10
134.848
20
-142.932
11
135.134
21
-143.075
0
LINE
8
BLACK
6
CONTINUOUS
10
136.276
20
-146.075
11
136.419
21
-145.932
0
LINE
8
BLACK
6
CONTINUOUS
10
136.419
20
-145.932
11
136.705
21
-145.504
0
LINE
8
BLACK
6
CONTINUOUS
10
136.705
20
-145.504
11
136.848
21
-145.218
0
LINE
8
BLACK
6
CONTINUOUS
10
136.848
20
-145.218
11
136.991
21
-144.789
0
LINE
8
BLACK
6
CONTINUOUS
10
136.991
20
-144.789
11
137.134
21
-144.075
0
LINE
8
BLACK
6
CONTINUOUS
10
137.134
20
-144.075
11
137.134
21
-143.504
0
LINE
8
BLACK
6
CONTINUOUS
10
137.134
20
-143.504
11
136.991
21
-142.789
0
LINE
8
BLACK
6
CONTINUOUS
10
136.991
20
-142.789
11
136.848
21
-142.361
0
LINE
8
BLACK
6
CONTINUOUS
10
136.848
20
-142.361
11
136.705
21
-142.075
0
LINE
8
BLACK
6
CONTINUOUS
10
136.705
20
-142.075
11
136.419
21
-141.646
0
LINE
8
BLACK
6
CONTINUOUS
10
136.419
20
-141.646
11
136.276
21
-141.504
0
LINE
8
BLACK
6
CONTINUOUS
10
67.355
20
-146.935
11
68.555
21
-148.135
0
LINE
8
BLACK
6
CONTINUOUS
10
68.555
20
-146.935
11
67.355
21
-148.135
0
CIRCLE
8
BLACK
10
67.955
20
-147.535
40
0.6
0
LINE
8
BLACK
6
CONTINUOUS
10
72.9907
20
-148.892
11
71.2764
21
-148.892
0
LINE
8
BLACK
6
CONTINUOUS
10
72.1336
20
-148.892
11
72.1336
21
-145.892
0
LINE
8
BLACK
6
CONTINUOUS
10
72.1336
20
-145.892
11
71.8479
21
-146.321
0
LINE
8
BLACK
6
CONTINUOUS
10
71.8479
20
-146.321
11
71.5621
21
-146.606
0
LINE
8
BLACK
6
CONTINUOUS
10
71.5621
20
-146.606
11
71.2764
21
-146.749
0
LINE
8
BLACK
6
CONTINUOUS
10
74.2764
20
-148.606
11
74.4193
21
-148.749
0
LINE
8
BLACK
6
CONTINUOUS
10
74.4193
20
-148.749
11
74.2764
21
-148.892
0
LINE
8
BLACK
6
CONTINUOUS
10
74.2764
20
-148.892
11
74.1336
21
-148.749
0
LINE
8
BLACK
6
CONTINUOUS
10
74.1336
20
-148.749
11
74.2764
21
-148.606
0
LINE
8
BLACK
6
CONTINUOUS
10
74.2764
20
-148.606
11
74.2764
21
-148.892
0
LINE
8
BLACK
6
CONTINUOUS
10
75.5621
20
-146.178
11
75.705
21
-146.035
0
LINE
8
BLACK
6
CONTINUOUS
10
75.705
20
-146.035
11
75.9907
21
-145.892
0
LINE
8
BLACK
6
CONTINUOUS
10
75.9907
20
-145.892
11
76.705
21
-145.892
0
LINE
8
BLACK
6
CONTINUOUS
10
76.705
20
-145.892
11
76.9907
21
-146.035
0
LINE
8
BLACK
6
CONTINUOUS
10
76.9907
20
-146.035
11
77.1336
21
-146.178
0
LINE
8
BLACK
6
CONTINUOUS
10
77.1336
20
-146.178
11
77.2764
21
-146.464
0
LINE
8
BLACK
6
CONTINUOUS
10
77.2764
20
-146.464
11
77.2764
21
-146.749
0
LINE
8
BLACK
6
CONTINUOUS
10
77.2764
20
-146.749
11
77.1336
21
-147.178
0
LINE
8
BLACK
6
CONTINUOUS
10
77.1336
20
-147.178
11
75.4193
21
-148.892
0
LINE
8
BLACK
6
CONTINUOUS
10
75.4193
20
-148.892
11
77.2764
21
-148.892
0
LINE
8
BLACK
6
CONTINUOUS
10
79.1336
20
-145.892
11
79.4193
21
-145.892
0
LINE
8
BLACK
6
CONTINUOUS
10
79.4193
20
-145.892
11
79.705
21
-146.035
0
LINE
8
BLACK
6
CONTINUOUS
10
79.705
20
-146.035
11
79.8479
21
-146.178
0
LINE
8
BLACK
6
CONTINUOUS
10
79.8479
20
-146.178
11
79.9907
21
-146.464
0
LINE
8
BLACK
6
CONTINUOUS
10
79.9907
20
-146.464
11
80.1336
21
-147.035
0
LINE
8
BLACK
6
CONTINUOUS
10
80.1336
20
-147.035
11
80.1336
21
-147.749
0
LINE
8
BLACK
6
CONTINUOUS
10
80.1336
20
-147.749
11
79.9907
21
-148.321
0
LINE
8
BLACK
6
CONTINUOUS
10
79.9907
20
-148.321
11
79.8479
21
-148.606
0
LINE
8
BLACK
6
CONTINUOUS
10
79.8479
20
-148.606
11
79.705
21
-148.749
0
LINE
8
BLACK
6
CONTINUOUS
10
79.705
20
-148.749
11
79.4193
21
-148.892
0
LINE
8
BLACK
6
CONTINUOUS
10
79.4193
20
-148.892
11
79.1336
21
-148.892
0
LINE
8
BLACK
6
CONTINUOUS
10
79.1336
20
-148.892
11
78.8479
21
-148.749
0
LINE
8
BLACK
6
CONTINUOUS
10
78.8479
20
-148.749
11
78.705
21
-148.606
0
LINE
8
BLACK
6
CONTINUOUS
10
78.705
20
-148.606
11
78.5621
21
-148.321
0
LINE
8
BLACK
6
CONTINUOUS
10
78.5621
20
-148.321
11
78.4193
21
-147.749
0
LINE
8
BLACK
6
CONTINUOUS
10
78.4193
20
-147.749
11
78.4193
21
-147.035
0
LINE
8
BLACK
6
CONTINUOUS
10
78.4193
20
-147.035
11
78.5621
21
-146.464
0
LINE
8
BLACK
6
CONTINUOUS
10
78.5621
20
-146.464
11
78.705
21
-146.178
0
LINE
8
BLACK
6
CONTINUOUS
10
78.705
20
-146.178
11
78.8479
21
-146.035
0
LINE
8
BLACK
6
CONTINUOUS
10
78.8479
20
-146.035
11
79.1336
21
-145.892
0
LINE
8
BLACK
6
CONTINUOUS
10
81.4193
20
-148.892
11
81.4193
21
-146.892
0
LINE
8
BLACK
6
CONTINUOUS
10
81.4193
20
-147.178
11
81.5621
21
-147.035
0
LINE
8
BLACK
6
CONTINUOUS
10
81.5621
20
-147.035
11
81.8479
21
-146.892
0
LINE
8
BLACK
6
CONTINUOUS
10
81.8479
20
-146.892
11
82.2764
21
-146.892
0
LINE
8
BLACK
6
CONTINUOUS
10
82.2764
20
-146.892
11
82.5621
21
-147.035
0
LINE
8
BLACK
6
CONTINUOUS
10
82.5621
20
-147.035
11
82.705
21
-147.321
0
LINE
8
BLACK
6
CONTINUOUS
10
82.705
20
-147.321
11
82.705
21
-148.892
0
LINE
8
BLACK
6
CONTINUOUS
10
82.705
20
-147.321
11
82.8479
21
-147.035
0
LINE
8
BLACK
6
CONTINUOUS
10
82.8479
20
-147.035
11
83.1336
21
-146.892
0
LINE
8
BLACK
6
CONTINUOUS
10
83.1336
20
-146.892
11
83.5621
21
-146.892
0
LINE
8
BLACK
6
CONTINUOUS
10
83.5621
20
-146.892
11
83.8479
21
-147.035
0
LINE
8
BLACK
6
CONTINUOUS
10
83.8479
20
-147.035
11
83.9907
21
-147.321
0
LINE
8
BLACK
6
CONTINUOUS
10
83.9907
20
-147.321
11
83.9907
21
-148.892
0
LINE
8
BLACK
6
CONTINUOUS
10
85.4193
20
-148.892
11
85.4193
21
-146.892
0
LINE
8
BLACK
6
CONTINUOUS
10
85.4193
20
-147.178
11
85.5621
21
-147.035
0
LINE
8
BLACK
6
CONTINUOUS
10
85.5621
20
-147.035
11
85.8479
21
-146.892
0
LINE
8
BLACK
6
CONTINUOUS
10
85.8479
20
-146.892
11
86.2764
21
-146.892
0
LINE
8
BLACK
6
CONTINUOUS
10
86.2764
20
-146.892
11
86.5621
21
-147.035
0
LINE
8
BLACK
6
CONTINUOUS
10
86.5621
20
-147.035
11
86.705
21
-147.321
0
LINE
8
BLACK
6
CONTINUOUS
10
86.705
20
-147.321
11
86.705
21
-148.892
0
LINE
8
BLACK
6
CONTINUOUS
10
86.705
20
-147.321
11
86.8479
21
-147.035
0
LINE
8
BLACK
6
CONTINUOUS
10
86.8479
20
-147.035
11
87.1336
21
-146.892
0
LINE
8
BLACK
6
CONTINUOUS
10
87.1336
20
-146.892
11
87.5621
21
-146.892
0
LINE
8
BLACK
6
CONTINUOUS
10
87.5621
20
-146.892
11
87.8479
21
-147.035
0
LINE
8
BLACK
6
CONTINUOUS
10
87.8479
20
-147.035
11
87.9907
21
-147.321
0
LINE
8
BLACK
6
CONTINUOUS
10
87.9907
20
-147.321
11
87.9907
21
-148.892
0
LINE
8
BLACK
6
CONTINUOUS
10
93.8479
20
-145.749
11
91.2764
21
-149.606
0
LINE
8
BLACK
6
CONTINUOUS
10
97.705
20
-145.892
11
97.9907
21
-145.892
0
LINE
8
BLACK
6
CONTINUOUS
10
97.9907
20
-145.892
11
98.2764
21
-146.035
0
LINE
8
BLACK
6
CONTINUOUS
10
98.2764
20
-146.035
11
98.4193
21
-146.178
0
LINE
8
BLACK
6
CONTINUOUS
10
98.4193
20
-146.178
11
98.5621
21
-146.464
0
LINE
8
BLACK
6
CONTINUOUS
10
98.5621
20
-146.464
11
98.705
21
-147.035
0
LINE
8
BLACK
6
CONTINUOUS
10
98.705
20
-147.035
11
98.705
21
-147.749
0
LINE
8
BLACK
6
CONTINUOUS
10
98.705
20
-147.749
11
98.5621
21
-148.321
0
LINE
8
BLACK
6
CONTINUOUS
10
98.5621
20
-148.321
11
98.4193
21
-148.606
0
LINE
8
BLACK
6
CONTINUOUS
10
98.4193
20
-148.606
11
98.2764
21
-148.749
0
LINE
8
BLACK
6
CONTINUOUS
10
98.2764
20
-148.749
11
97.9907
21
-148.892
0
LINE
8
BLACK
6
CONTINUOUS
10
97.9907
20
-148.892
11
97.705
21
-148.892
0
LINE
8
BLACK
6
CONTINUOUS
10
97.705
20
-148.892
11
97.4193
21
-148.749
0
LINE
8
BLACK
6
CONTINUOUS
10
97.4193
20
-148.749
11
97.2764
21
-148.606
0
LINE
8
BLACK
6
CONTINUOUS
10
97.2764
20
-148.606
11
97.1336
21
-148.321
0
LINE
8
BLACK
6
CONTINUOUS
10
97.1336
20
-148.321
11
96.9907
21
-147.749
0
LINE
8
BLACK
6
CONTINUOUS
10
96.9907
20
-147.749
11
96.9907
21
-147.035
0
LINE
8
BLACK
6
CONTINUOUS
10
96.9907
20
-147.035
11
97.1336
21
-146.464
0
LINE
8
BLACK
6
CONTINUOUS
10
97.1336
20
-146.464
11
97.2764
21
-146.178
0
LINE
8
BLACK
6
CONTINUOUS
10
97.2764
20
-146.178
11
97.4193
21
-146.035
0
LINE
8
BLACK
6
CONTINUOUS
10
97.4193
20
-146.035
11
97.705
21
-145.892
0
LINE
8
BLACK
6
CONTINUOUS
10
99.9907
20
-148.606
11
100.134
21
-148.749
0
LINE
8
BLACK
6
CONTINUOUS
10
100.134
20
-148.749
11
99.9907
21
-148.892
0
LINE
8
BLACK
6
CONTINUOUS
10
99.9907
20
-148.892
11
99.8479
21
-148.749
0
LINE
8
BLACK
6
CONTINUOUS
10
99.8479
20
-148.749
11
99.9907
21
-148.606
0
LINE
8
BLACK
6
CONTINUOUS
10
99.9907
20
-148.606
11
99.9907
21
-148.892
0
LINE
8
BLACK
6
CONTINUOUS
10
101.991
20
-145.892
11
102.276
21
-145.892
0
LINE
8
BLACK
6
CONTINUOUS
10
102.276
20
-145.892
11
102.562
21
-146.035
0
LINE
8
BLACK
6
CONTINUOUS
10
102.562
20
-146.035
11
102.705
21
-146.178
0
LINE
8
BLACK
6
CONTINUOUS
10
102.705
20
-146.178
11
102.848
21
-146.464
0
LINE
8
BLACK
6
CONTINUOUS
10
102.848
20
-146.464
11
102.991
21
-147.035
0
LINE
8
BLACK
6
CONTINUOUS
10
102.991
20
-147.035
11
102.991
21
-147.749
0
LINE
8
BLACK
6
CONTINUOUS
10
102.991
20
-147.749
11
102.848
21
-148.321
0
LINE
8
BLACK
6
CONTINUOUS
10
102.848
20
-148.321
11
102.705
21
-148.606
0
LINE
8
BLACK
6
CONTINUOUS
10
102.705
20
-148.606
11
102.562
21
-148.749
0
LINE
8
BLACK
6
CONTINUOUS
10
102.562
20
-148.749
11
102.276
21
-148.892
0
LINE
8
BLACK
6
CONTINUOUS
10
102.276
20
-148.892
11
101.991
21
-148.892
0
LINE
8
BLACK
6
CONTINUOUS
10
101.991
20
-148.892
11
101.705
21
-148.749
0
LINE
8
BLACK
6
CONTINUOUS
10
101.705
20
-148.749
11
101.562
21
-148.606
0
LINE
8
BLACK
6
CONTINUOUS
10
101.562
20
-148.606
11
101.419
21
-148.321
0
LINE
8
BLACK
6
CONTINUOUS
10
101.419
20
-148.321
11
101.276
21
-147.749
0
LINE
8
BLACK
6
CONTINUOUS
10
101.276
20
-147.749
11
101.276
21
-147.035
0
LINE
8
BLACK
6
CONTINUOUS
10
101.276
20
-147.035
11
101.419
21
-146.464
0
LINE
8
BLACK
6
CONTINUOUS
10
101.419
20
-146.464
11
101.562
21
-146.178
0
LINE
8
BLACK
6
CONTINUOUS
10
101.562
20
-146.178
11
101.705
21
-146.035
0
LINE
8
BLACK
6
CONTINUOUS
10
101.705
20
-146.035
11
101.991
21
-145.892
0
LINE
8
BLACK
6
CONTINUOUS
10
105.562
20
-146.892
11
105.562
21
-148.892
0
LINE
8
BLACK
6
CONTINUOUS
10
104.848
20
-145.749
11
104.134
21
-147.892
0
LINE
8
BLACK
6
CONTINUOUS
10
104.134
20
-147.892
11
105.991
21
-147.892
0
LINE
8
BLACK
6
CONTINUOUS
10
106.848
20
-145.892
11
108.848
21
-145.892
0
LINE
8
BLACK
6
CONTINUOUS
10
108.848
20
-145.892
11
107.562
21
-148.892
0
LINE
8
BLACK
6
CONTINUOUS
10
109.848
20
-145.892
11
109.848
21
-146.464
0
LINE
8
BLACK
6
CONTINUOUS
10
110.991
20
-145.892
11
110.991
21
-146.464
0
LINE
8
BLACK
6
CONTINUOUS
10
115.419
20
-150.035
11
115.276
21
-149.892
0
LINE
8
BLACK
6
CONTINUOUS
10
115.276
20
-149.892
11
114.991
21
-149.464
0
LINE
8
BLACK
6
CONTINUOUS
10
114.991
20
-149.464
11
114.848
21
-149.178
0
LINE
8
BLACK
6
CONTINUOUS
10
114.848
20
-149.178
11
114.705
21
-148.749
0
LINE
8
BLACK
6
CONTINUOUS
10
114.705
20
-148.749
11
114.562
21
-148.035
0
LINE
8
BLACK
6
CONTINUOUS
10
114.562
20
-148.035
11
114.562
21
-147.464
0
LINE
8
BLACK
6
CONTINUOUS
10
114.562
20
-147.464
11
114.705
21
-146.749
0
LINE
8
BLACK
6
CONTINUOUS
10
114.705
20
-146.749
11
114.848
21
-146.321
0
LINE
8
BLACK
6
CONTINUOUS
10
114.848
20
-146.321
11
114.991
21
-146.035
0
LINE
8
BLACK
6
CONTINUOUS
10
114.991
20
-146.035
11
115.276
21
-145.606
0
LINE
8
BLACK
6
CONTINUOUS
10
115.276
20
-145.606
11
115.419
21
-145.464
0
LINE
8
BLACK
6
CONTINUOUS
10
116.419
20
-146.178
11
116.562
21
-146.035
0
LINE
8
BLACK
6
CONTINUOUS
10
116.562
20
-146.035
11
116.848
21
-145.892
0
LINE
8
BLACK
6
CONTINUOUS
10
116.848
20
-145.892
11
117.562
21
-145.892
0
LINE
8
BLACK
6
CONTINUOUS
10
117.562
20
-145.892
11
117.848
21
-146.035
0
LINE
8
BLACK
6
CONTINUOUS
10
117.848
20
-146.035
11
117.991
21
-146.178
0
LINE
8
BLACK
6
CONTINUOUS
10
117.991
20
-146.178
11
118.134
21
-146.464
0
LINE
8
BLACK
6
CONTINUOUS
10
118.134
20
-146.464
11
118.134
21
-146.749
0
LINE
8
BLACK
6
CONTINUOUS
10
118.134
20
-146.749
11
117.991
21
-147.178
0
LINE
8
BLACK
6
CONTINUOUS
10
117.991
20
-147.178
11
116.276
21
-148.892
0
LINE
8
BLACK
6
CONTINUOUS
10
116.276
20
-148.892
11
118.134
21
-148.892
0
LINE
8
BLACK
6
CONTINUOUS
10
119.562
20
-148.892
11
120.134
21
-148.892
0
LINE
8
BLACK
6
CONTINUOUS
10
120.134
20
-148.892
11
120.419
21
-148.749
0
LINE
8
BLACK
6
CONTINUOUS
10
120.419
20
-148.749
11
120.562
21
-148.606
0
LINE
8
BLACK
6
CONTINUOUS
10
120.562
20
-148.606
11
120.848
21
-148.178
0
LINE
8
BLACK
6
CONTINUOUS
10
120.848
20
-148.178
11
120.991
21
-147.606
0
LINE
8
BLACK
6
CONTINUOUS
10
120.991
20
-147.606
11
120.991
21
-146.464
0
LINE
8
BLACK
6
CONTINUOUS
10
120.991
20
-146.464
11
120.848
21
-146.178
0
LINE
8
BLACK
6
CONTINUOUS
10
120.848
20
-146.178
11
120.705
21
-146.035
0
LINE
8
BLACK
6
CONTINUOUS
10
120.705
20
-146.035
11
120.419
21
-145.892
0
LINE
8
BLACK
6
CONTINUOUS
10
120.419
20
-145.892
11
119.848
21
-145.892
0
LINE
8
BLACK
6
CONTINUOUS
10
119.848
20
-145.892
11
119.562
21
-146.035
0
LINE
8
BLACK
6
CONTINUOUS
10
119.562
20
-146.035
11
119.419
21
-146.178
0
LINE
8
BLACK
6
CONTINUOUS
10
119.419
20
-146.178
11
119.276
21
-146.464
0
LINE
8
BLACK
6
CONTINUOUS
10
119.276
20
-146.464
11
119.276
21
-147.178
0
LINE
8
BLACK
6
CONTINUOUS
10
119.276
20
-147.178
11
119.419
21
-147.464
0
LINE
8
BLACK
6
CONTINUOUS
10
119.419
20
-147.464
11
119.562
21
-147.606
0
LINE
8
BLACK
6
CONTINUOUS
10
119.562
20
-147.606
11
119.848
21
-147.749
0
LINE
8
BLACK
6
CONTINUOUS
10
119.848
20
-147.749
11
120.419
21
-147.749
0
LINE
8
BLACK
6
CONTINUOUS
10
120.419
20
-147.749
11
120.705
21
-147.606
0
LINE
8
BLACK
6
CONTINUOUS
10
120.705
20
-147.606
11
120.848
21
-147.464
0
LINE
8
BLACK
6
CONTINUOUS
10
120.848
20
-147.464
11
120.991
21
-147.178
0
LINE
8
BLACK
6
CONTINUOUS
10
124.562
20
-148.892
11
124.562
21
-145.892
0
LINE
8
BLACK
6
CONTINUOUS
10
125.848
20
-148.892
11
125.848
21
-147.321
0
LINE
8
BLACK
6
CONTINUOUS
10
125.848
20
-147.321
11
125.705
21
-147.035
0
LINE
8
BLACK
6
CONTINUOUS
10
125.705
20
-147.035
11
125.419
21
-146.892
0
LINE
8
BLACK
6
CONTINUOUS
10
125.419
20
-146.892
11
124.991
21
-146.892
0
LINE
8
BLACK
6
CONTINUOUS
10
124.991
20
-146.892
11
124.705
21
-147.035
0
LINE
8
BLACK
6
CONTINUOUS
10
124.705
20
-147.035
11
124.562
21
-147.178
0
LINE
8
BLACK
6
CONTINUOUS
10
127.705
20
-148.892
11
127.419
21
-148.749
0
LINE
8
BLACK
6
CONTINUOUS
10
127.419
20
-148.749
11
127.276
21
-148.606
0
LINE
8
BLACK
6
CONTINUOUS
10
127.276
20
-148.606
11
127.134
21
-148.321
0
LINE
8
BLACK
6
CONTINUOUS
10
127.134
20
-148.321
11
127.134
21
-147.464
0
LINE
8
BLACK
6
CONTINUOUS
10
127.134
20
-147.464
11
127.276
21
-147.178
0
LINE
8
BLACK
6
CONTINUOUS
10
127.276
20
-147.178
11
127.419
21
-147.035
0
LINE
8
BLACK
6
CONTINUOUS
10
127.419
20
-147.035
11
127.705
21
-146.892
0
LINE
8
BLACK
6
CONTINUOUS
10
127.705
20
-146.892
11
128.134
21
-146.892
0
LINE
8
BLACK
6
CONTINUOUS
10
128.134
20
-146.892
11
128.419
21
-147.035
0
LINE
8
BLACK
6
CONTINUOUS
10
128.419
20
-147.035
11
128.562
21
-147.178
0
LINE
8
BLACK
6
CONTINUOUS
10
128.562
20
-147.178
11
128.705
21
-147.464
0
LINE
8
BLACK
6
CONTINUOUS
10
128.705
20
-147.464
11
128.705
21
-148.321
0
LINE
8
BLACK
6
CONTINUOUS
10
128.705
20
-148.321
11
128.562
21
-148.606
0
LINE
8
BLACK
6
CONTINUOUS
10
128.562
20
-148.606
11
128.419
21
-148.749
0
LINE
8
BLACK
6
CONTINUOUS
10
128.419
20
-148.749
11
128.134
21
-148.892
0
LINE
8
BLACK
6
CONTINUOUS
10
128.134
20
-148.892
11
127.705
21
-148.892
0
LINE
8
BLACK
6
CONTINUOUS
10
130.419
20
-148.892
11
130.134
21
-148.749
0
LINE
8
BLACK
6
CONTINUOUS
10
130.134
20
-148.749
11
129.991
21
-148.464
0
LINE
8
BLACK
6
CONTINUOUS
10
129.991
20
-148.464
11
129.991
21
-145.892
0
LINE
8
BLACK
6
CONTINUOUS
10
132.705
20
-148.749
11
132.419
21
-148.892
0
LINE
8
BLACK
6
CONTINUOUS
10
132.419
20
-148.892
11
131.848
21
-148.892
0
LINE
8
BLACK
6
CONTINUOUS
10
131.848
20
-148.892
11
131.562
21
-148.749
0
LINE
8
BLACK
6
CONTINUOUS
10
131.562
20
-148.749
11
131.419
21
-148.464
0
LINE
8
BLACK
6
CONTINUOUS
10
131.419
20
-148.464
11
131.419
21
-147.321
0
LINE
8
BLACK
6
CONTINUOUS
10
131.419
20
-147.321
11
131.562
21
-147.035
0
LINE
8
BLACK
6
CONTINUOUS
10
131.562
20
-147.035
11
131.848
21
-146.892
0
LINE
8
BLACK
6
CONTINUOUS
10
131.848
20
-146.892
11
132.419
21
-146.892
0
LINE
8
BLACK
6
CONTINUOUS
10
132.419
20
-146.892
11
132.705
21
-147.035
0
LINE
8
BLACK
6
CONTINUOUS
10
132.705
20
-147.035
11
132.848
21
-147.321
0
LINE
8
BLACK
6
CONTINUOUS
10
132.848
20
-147.321
11
132.848
21
-147.606
0
LINE
8
BLACK
6
CONTINUOUS
10
132.848
20
-147.606
11
131.419
21
-147.892
0
LINE
8
BLACK
6
CONTINUOUS
10
133.991
20
-148.749
11
134.276
21
-148.892
0
LINE
8
BLACK
6
CONTINUOUS
10
134.276
20
-148.892
11
134.848
21
-148.892
0
LINE
8
BLACK
6
CONTINUOUS
10
134.848
20
-148.892
11
135.134
21
-148.749
0
LINE
8
BLACK
6
CONTINUOUS
10
135.134
20
-148.749
11
135.276
21
-148.464
0
LINE
8
BLACK
6
CONTINUOUS
10
135.276
20
-148.464
11
135.276
21
-148.321
0
LINE
8
BLACK
6
CONTINUOUS
10
135.276
20
-148.321
11
135.134
21
-148.035
0
LINE
8
BLACK
6
CONTINUOUS
10
135.134
20
-148.035
11
134.848
21
-147.892
0
LINE
8
BLACK
6
CONTINUOUS
10
134.848
20
-147.892
11
134.419
21
-147.892
0
LINE
8
BLACK
6
CONTINUOUS
10
134.419
20
-147.892
11
134.134
21
-147.749
0
LINE
8
BLACK
6
CONTINUOUS
10
134.134
20
-147.749
11
133.991
21
-147.464
0
LINE
8
BLACK
6
CONTINUOUS
10
133.991
20
-147.464
11
133.991
21
-147.321
0
LINE
8
BLACK
6
CONTINUOUS
10
133.991
20
-147.321
11
134.134
21
-147.035
0
LINE
8
BLACK
6
CONTINUOUS
10
134.134
20
-147.035
11
134.419
21
-146.892
0
LINE
8
BLACK
6
CONTINUOUS
10
134.419
20
-146.892
11
134.848
21
-146.892
0
LINE
8
BLACK
6
CONTINUOUS
10
134.848
20
-146.892
11
135.134
21
-147.035
0
LINE
8
BLACK
6
CONTINUOUS
10
136.276
20
-150.035
11
136.419
21
-149.892
0
LINE
8
BLACK
6
CONTINUOUS
10
136.419
20
-149.892
11
136.705
21
-149.464
0
LINE
8
BLACK
6
CONTINUOUS
10
136.705
20
-149.464
11
136.848
21
-149.178
0
LINE
8
BLACK
6
CONTINUOUS
10
136.848
20
-149.178
11
136.991
21
-148.749
0
LINE
8
BLACK
6
CONTINUOUS
10
136.991
20
-148.749
11
137.134
21
-148.035
0
LINE
8
BLACK
6
CONTINUOUS
10
137.134
20
-148.035
11
137.134
21
-147.464
0
LINE
8
BLACK
6
CONTINUOUS
10
137.134
20
-147.464
11
136.991
21
-146.749
0
LINE
8
BLACK
6
CONTINUOUS
10
136.991
20
-146.749
11
136.848
21
-146.321
0
LINE
8
BLACK
6
CONTINUOUS
10
136.848
20
-146.321
11
136.705
21
-146.035
0
LINE
8
BLACK
6
CONTINUOUS
10
136.705
20
-146.035
11
136.419
21
-145.606
0
LINE
8
BLACK
6
CONTINUOUS
10
136.419
20
-145.606
11
136.276
21
-145.464
0
LINE
8
BLACK
6
CONTINUOUS
10
65.355
20
-149.895
11
68.555
21
-153.095
0
LINE
8
BLACK
6
CONTINUOUS
10
68.555
20
-149.895
11
65.355
21
-153.095
0
LINE
8
BLACK
6
CONTINUOUS
10
66.955
20
-149.895
11
66.955
21
-153.095
0
LINE
8
BLACK
6
CONTINUOUS
10
65.355
20
-151.495
11
68.555
21
-151.495
0
LINE
8
BLACK
6
CONTINUOUS
10
71.1336
20
-149.852
11
72.9907
21
-149.852
0
LINE
8
BLACK
6
CONTINUOUS
10
72.9907
20
-149.852
11
71.9907
21
-150.995
0
LINE
8
BLACK
6
CONTINUOUS
10
71.9907
20
-150.995
11
72.4193
21
-150.995
0
LINE
8
BLACK
6
CONTINUOUS
10
72.4193
20
-150.995
11
72.705
21
-151.138
0
LINE
8
BLACK
6
CONTINUOUS
10
72.705
20
-151.138
11
72.8479
21
-151.281
0
LINE
8
BLACK
6
CONTINUOUS
10
72.8479
20
-151.281
11
72.9907
21
-151.566
0
LINE
8
BLACK
6
CONTINUOUS
10
72.9907
20
-151.566
11
72.9907
21
-152.281
0
LINE
8
BLACK
6
CONTINUOUS
10
72.9907
20
-152.281
11
72.8479
21
-152.566
0
LINE
8
BLACK
6
CONTINUOUS
10
72.8479
20
-152.566
11
72.705
21
-152.709
0
LINE
8
BLACK
6
CONTINUOUS
10
72.705
20
-152.709
11
72.4193
21
-152.852
0
LINE
8
BLACK
6
CONTINUOUS
10
72.4193
20
-152.852
11
71.5621
21
-152.852
0
LINE
8
BLACK
6
CONTINUOUS
10
71.5621
20
-152.852
11
71.2764
21
-152.709
0
LINE
8
BLACK
6
CONTINUOUS
10
71.2764
20
-152.709
11
71.1336
21
-152.566
0
LINE
8
BLACK
6
CONTINUOUS
10
74.2764
20
-152.566
11
74.4193
21
-152.709
0
LINE
8
BLACK
6
CONTINUOUS
10
74.4193
20
-152.709
11
74.2764
21
-152.852
0
LINE
8
BLACK
6
CONTINUOUS
10
74.2764
20
-152.852
11
74.1336
21
-152.709
0
LINE
8
BLACK
6
CONTINUOUS
10
74.1336
20
-152.709
11
74.2764
21
-152.566
0
LINE
8
BLACK
6
CONTINUOUS
10
74.2764
20
-152.566
11
74.2764
21
-152.852
0
LINE
8
BLACK
6
CONTINUOUS
10
75.5621
20
-150.138
11
75.705
21
-149.995
0
LINE
8
BLACK
6
CONTINUOUS
10
75.705
20
-149.995
11
75.9907
21
-149.852
0
LINE
8
BLACK
6
CONTINUOUS
10
75.9907
20
-149.852
11
76.705
21
-149.852
0
LINE
8
BLACK
6
CONTINUOUS
10
76.705
20
-149.852
11
76.9907
21
-149.995
0
LINE
8
BLACK
6
CONTINUOUS
10
76.9907
20
-149.995
11
77.1336
21
-150.138
0
LINE
8
BLACK
6
CONTINUOUS
10
77.1336
20
-150.138
11
77.2764
21
-150.424
0
LINE
8
BLACK
6
CONTINUOUS
10
77.2764
20
-150.424
11
77.2764
21
-150.709
0
LINE
8
BLACK
6
CONTINUOUS
10
77.2764
20
-150.709
11
77.1336
21
-151.138
0
LINE
8
BLACK
6
CONTINUOUS
10
77.1336
20
-151.138
11
75.4193
21
-152.852
0
LINE
8
BLACK
6
CONTINUOUS
10
75.4193
20
-152.852
11
77.2764
21
-152.852
0
LINE
8
BLACK
6
CONTINUOUS
10
79.1336
20
-149.852
11
79.4193
21
-149.852
0
LINE
8
BLACK
6
CONTINUOUS
10
79.4193
20
-149.852
11
79.705
21
-149.995
0
LINE
8
BLACK
6
CONTINUOUS
10
79.705
20
-149.995
11
79.8479
21
-150.138
0
LINE
8
BLACK
6
CONTINUOUS
10
79.8479
20
-150.138
11
79.9907
21
-150.424
0
LINE
8
BLACK
6
CONTINUOUS
10
79.9907
20
-150.424
11
80.1336
21
-150.995
0
LINE
8
BLACK
6
CONTINUOUS
10
80.1336
20
-150.995
11
80.1336
21
-151.709
0
LINE
8
BLACK
6
CONTINUOUS
10
80.1336
20
-151.709
11
79.9907
21
-152.281
0
LINE
8
BLACK
6
CONTINUOUS
10
79.9907
20
-152.281
11
79.8479
21
-152.566
0
LINE
8
BLACK
6
CONTINUOUS
10
79.8479
20
-152.566
11
79.705
21
-152.709
0
LINE
8
BLACK
6
CONTINUOUS
10
79.705
20
-152.709
11
79.4193
21
-152.852
0
LINE
8
BLACK
6
CONTINUOUS
10
79.4193
20
-152.852
11
79.1336
21
-152.852
0
LINE
8
BLACK
6
CONTINUOUS
10
79.1336
20
-152.852
11
78.8479
21
-152.709
0
LINE
8
BLACK
6
CONTINUOUS
10
78.8479
20
-152.709
11
78.705
21
-152.566
0
LINE
8
BLACK
6
CONTINUOUS
10
78.705
20
-152.566
11
78.5621
21
-152.281
0
LINE
8
BLACK
6
CONTINUOUS
10
78.5621
20
-152.281
11
78.4193
21
-151.709
0
LINE
8
BLACK
6
CONTINUOUS
10
78.4193
20
-151.709
11
78.4193
21
-150.995
0
LINE
8
BLACK
6
CONTINUOUS
10
78.4193
20
-150.995
11
78.5621
21
-150.424
0
LINE
8
BLACK
6
CONTINUOUS
10
78.5621
20
-150.424
11
78.705
21
-150.138
0
LINE
8
BLACK
6
CONTINUOUS
10
78.705
20
-150.138
11
78.8479
21
-149.995
0
LINE
8
BLACK
6
CONTINUOUS
10
78.8479
20
-149.995
11
79.1336
21
-149.852
0
LINE
8
BLACK
6
CONTINUOUS
10
81.4193
20
-152.852
11
81.4193
21
-150.852
0
LINE
8
BLACK
6
CONTINUOUS
10
81.4193
20
-151.138
11
81.5621
21
-150.995
0
LINE
8
BLACK
6
CONTINUOUS
10
81.5621
20
-150.995
11
81.8479
21
-150.852
0
LINE
8
BLACK
6
CONTINUOUS
10
81.8479
20
-150.852
11
82.2764
21
-150.852
0
LINE
8
BLACK
6
CONTINUOUS
10
82.2764
20
-150.852
11
82.5621
21
-150.995
0
LINE
8
BLACK
6
CONTINUOUS
10
82.5621
20
-150.995
11
82.705
21
-151.281
0
LINE
8
BLACK
6
CONTINUOUS
10
82.705
20
-151.281
11
82.705
21
-152.852
0
LINE
8
BLACK
6
CONTINUOUS
10
82.705
20
-151.281
11
82.8479
21
-150.995
0
LINE
8
BLACK
6
CONTINUOUS
10
82.8479
20
-150.995
11
83.1336
21
-150.852
0
LINE
8
BLACK
6
CONTINUOUS
10
83.1336
20
-150.852
11
83.5621
21
-150.852
0
LINE
8
BLACK
6
CONTINUOUS
10
83.5621
20
-150.852
11
83.8479
21
-150.995
0
LINE
8
BLACK
6
CONTINUOUS
10
83.8479
20
-150.995
11
83.9907
21
-151.281
0
LINE
8
BLACK
6
CONTINUOUS
10
83.9907
20
-151.281
11
83.9907
21
-152.852
0
LINE
8
BLACK
6
CONTINUOUS
10
85.4193
20
-152.852
11
85.4193
21
-150.852
0
LINE
8
BLACK
6
CONTINUOUS
10
85.4193
20
-151.138
11
85.5621
21
-150.995
0
LINE
8
BLACK
6
CONTINUOUS
10
85.5621
20
-150.995
11
85.8479
21
-150.852
0
LINE
8
BLACK
6
CONTINUOUS
10
85.8479
20
-150.852
11
86.2764
21
-150.852
0
LINE
8
BLACK
6
CONTINUOUS
10
86.2764
20
-150.852
11
86.5621
21
-150.995
0
LINE
8
BLACK
6
CONTINUOUS
10
86.5621
20
-150.995
11
86.705
21
-151.281
0
LINE
8
BLACK
6
CONTINUOUS
10
86.705
20
-151.281
11
86.705
21
-152.852
0
LINE
8
BLACK
6
CONTINUOUS
10
86.705
20
-151.281
11
86.8479
21
-150.995
0
LINE
8
BLACK
6
CONTINUOUS
10
86.8479
20
-150.995
11
87.1336
21
-150.852
0
LINE
8
BLACK
6
CONTINUOUS
10
87.1336
20
-150.852
11
87.5621
21
-150.852
0
LINE
8
BLACK
6
CONTINUOUS
10
87.5621
20
-150.852
11
87.8479
21
-150.995
0
LINE
8
BLACK
6
CONTINUOUS
10
87.8479
20
-150.995
11
87.9907
21
-151.281
0
LINE
8
BLACK
6
CONTINUOUS
10
87.9907
20
-151.281
11
87.9907
21
-152.852
0
LINE
8
BLACK
6
CONTINUOUS
10
93.8479
20
-149.709
11
91.2764
21
-153.566
0
LINE
8
BLACK
6
CONTINUOUS
10
97.705
20
-149.852
11
97.9907
21
-149.852
0
LINE
8
BLACK
6
CONTINUOUS
10
97.9907
20
-149.852
11
98.2764
21
-149.995
0
LINE
8
BLACK
6
CONTINUOUS
10
98.2764
20
-149.995
11
98.4193
21
-150.138
0
LINE
8
BLACK
6
CONTINUOUS
10
98.4193
20
-150.138
11
98.5621
21
-150.424
0
LINE
8
BLACK
6
CONTINUOUS
10
98.5621
20
-150.424
11
98.705
21
-150.995
0
LINE
8
BLACK
6
CONTINUOUS
10
98.705
20
-150.995
11
98.705
21
-151.709
0
LINE
8
BLACK
6
CONTINUOUS
10
98.705
20
-151.709
11
98.5621
21
-152.281
0
LINE
8
BLACK
6
CONTINUOUS
10
98.5621
20
-152.281
11
98.4193
21
-152.566
0
LINE
8
BLACK
6
CONTINUOUS
10
98.4193
20
-152.566
11
98.2764
21
-152.709
0
LINE
8
BLACK
6
CONTINUOUS
10
98.2764
20
-152.709
11
97.9907
21
-152.852
0
LINE
8
BLACK
6
CONTINUOUS
10
97.9907
20
-152.852
11
97.705
21
-152.852
0
LINE
8
BLACK
6
CONTINUOUS
10
97.705
20
-152.852
11
97.4193
21
-152.709
0
LINE
8
BLACK
6
CONTINUOUS
10
97.4193
20
-152.709
11
97.2764
21
-152.566
0
LINE
8
BLACK
6
CONTINUOUS
10
97.2764
20
-152.566
11
97.1336
21
-152.281
0
LINE
8
BLACK
6
CONTINUOUS
10
97.1336
20
-152.281
11
96.9907
21
-151.709
0
LINE
8
BLACK
6
CONTINUOUS
10
96.9907
20
-151.709
11
96.9907
21
-150.995
0
LINE
8
BLACK
6
CONTINUOUS
10
96.9907
20
-150.995
11
97.1336
21
-150.424
0
LINE
8
BLACK
6
CONTINUOUS
10
97.1336
20
-150.424
11
97.2764
21
-150.138
0
LINE
8
BLACK
6
CONTINUOUS
10
97.2764
20
-150.138
11
97.4193
21
-149.995
0
LINE
8
BLACK
6
CONTINUOUS
10
97.4193
20
-149.995
11
97.705
21
-149.852
0
LINE
8
BLACK
6
CONTINUOUS
10
99.9907
20
-152.566
11
100.134
21
-152.709
0
LINE
8
BLACK
6
CONTINUOUS
10
100.134
20
-152.709
11
99.9907
21
-152.852
0
LINE
8
BLACK
6
CONTINUOUS
10
99.9907
20
-152.852
11
99.8479
21
-152.709
0
LINE
8
BLACK
6
CONTINUOUS
10
99.8479
20
-152.709
11
99.9907
21
-152.566
0
LINE
8
BLACK
6
CONTINUOUS
10
99.9907
20
-152.566
11
99.9907
21
-152.852
0
LINE
8
BLACK
6
CONTINUOUS
10
102.991
20
-152.852
11
101.276
21
-152.852
0
LINE
8
BLACK
6
CONTINUOUS
10
102.134
20
-152.852
11
102.134
21
-149.852
0
LINE
8
BLACK
6
CONTINUOUS
10
102.134
20
-149.852
11
101.848
21
-150.281
0
LINE
8
BLACK
6
CONTINUOUS
10
101.848
20
-150.281
11
101.562
21
-150.566
0
LINE
8
BLACK
6
CONTINUOUS
10
101.562
20
-150.566
11
101.276
21
-150.709
0
LINE
8
BLACK
6
CONTINUOUS
10
104.134
20
-150.138
11
104.276
21
-149.995
0
LINE
8
BLACK
6
CONTINUOUS
10
104.276
20
-149.995
11
104.562
21
-149.852
0
LINE
8
BLACK
6
CONTINUOUS
10
104.562
20
-149.852
11
105.276
21
-149.852
0
LINE
8
BLACK
6
CONTINUOUS
10
105.276
20
-149.852
11
105.562
21
-149.995
0
LINE
8
BLACK
6
CONTINUOUS
10
105.562
20
-149.995
11
105.705
21
-150.138
0
LINE
8
BLACK
6
CONTINUOUS
10
105.705
20
-150.138
11
105.848
21
-150.424
0
LINE
8
BLACK
6
CONTINUOUS
10
105.848
20
-150.424
11
105.848
21
-150.709
0
LINE
8
BLACK
6
CONTINUOUS
10
105.848
20
-150.709
11
105.705
21
-151.138
0
LINE
8
BLACK
6
CONTINUOUS
10
105.705
20
-151.138
11
103.991
21
-152.852
0
LINE
8
BLACK
6
CONTINUOUS
10
103.991
20
-152.852
11
105.848
21
-152.852
0
LINE
8
BLACK
6
CONTINUOUS
10
108.419
20
-149.852
11
107.848
21
-149.852
0
LINE
8
BLACK
6
CONTINUOUS
10
107.848
20
-149.852
11
107.562
21
-149.995
0
LINE
8
BLACK
6
CONTINUOUS
10
107.562
20
-149.995
11
107.419
21
-150.138
0
LINE
8
BLACK
6
CONTINUOUS
10
107.419
20
-150.138
11
107.134
21
-150.566
0
LINE
8
BLACK
6
CONTINUOUS
10
107.134
20
-150.566
11
106.991
21
-151.138
0
LINE
8
BLACK
6
CONTINUOUS
10
106.991
20
-151.138
11
106.991
21
-152.281
0
LINE
8
BLACK
6
CONTINUOUS
10
106.991
20
-152.281
11
107.134
21
-152.566
0
LINE
8
BLACK
6
CONTINUOUS
10
107.134
20
-152.566
11
107.276
21
-152.709
0
LINE
8
BLACK
6
CONTINUOUS
10
107.276
20
-152.709
11
107.562
21
-152.852
0
LINE
8
BLACK
6
CONTINUOUS
10
107.562
20
-152.852
11
108.134
21
-152.852
0
LINE
8
BLACK
6
CONTINUOUS
10
108.134
20
-152.852
11
108.419
21
-152.709
0
LINE
8
BLACK
6
CONTINUOUS
10
108.419
20
-152.709
11
108.562
21
-152.566
0
LINE
8
BLACK
6
CONTINUOUS
10
108.562
20
-152.566
11
108.705
21
-152.281
0
LINE
8
BLACK
6
CONTINUOUS
10
108.705
20
-152.281
11
108.705
21
-151.566
0
LINE
8
BLACK
6
CONTINUOUS
10
108.705
20
-151.566
11
108.562
21
-151.281
0
LINE
8
BLACK
6
CONTINUOUS
10
108.562
20
-151.281
11
108.419
21
-151.138
0
LINE
8
BLACK
6
CONTINUOUS
10
108.419
20
-151.138
11
108.134
21
-150.995
0
LINE
8
BLACK
6
CONTINUOUS
10
108.134
20
-150.995
11
107.562
21
-150.995
0
LINE
8
BLACK
6
CONTINUOUS
10
107.562
20
-150.995
11
107.276
21
-151.138
0
LINE
8
BLACK
6
CONTINUOUS
10
107.276
20
-151.138
11
107.134
21
-151.281
0
LINE
8
BLACK
6
CONTINUOUS
10
107.134
20
-151.281
11
106.991
21
-151.566
0
LINE
8
BLACK
6
CONTINUOUS
10
109.848
20
-149.852
11
109.848
21
-150.424
0
LINE
8
BLACK
6
CONTINUOUS
10
110.991
20
-149.852
11
110.991
21
-150.424
0
LINE
8
BLACK
6
CONTINUOUS
10
115.419
20
-153.995
11
115.276
21
-153.852
0
LINE
8
BLACK
6
CONTINUOUS
10
115.276
20
-153.852
11
114.991
21
-153.424
0
LINE
8
BLACK
6
CONTINUOUS
10
114.991
20
-153.424
11
114.848
21
-153.138
0
LINE
8
BLACK
6
CONTINUOUS
10
114.848
20
-153.138
11
114.705
21
-152.709
0
LINE
8
BLACK
6
CONTINUOUS
10
114.705
20
-152.709
11
114.562
21
-151.995
0
LINE
8
BLACK
6
CONTINUOUS
10
114.562
20
-151.995
11
114.562
21
-151.424
0
LINE
8
BLACK
6
CONTINUOUS
10
114.562
20
-151.424
11
114.705
21
-150.709
0
LINE
8
BLACK
6
CONTINUOUS
10
114.705
20
-150.709
11
114.848
21
-150.281
0
LINE
8
BLACK
6
CONTINUOUS
10
114.848
20
-150.281
11
114.991
21
-149.995
0
LINE
8
BLACK
6
CONTINUOUS
10
114.991
20
-149.995
11
115.276
21
-149.566
0
LINE
8
BLACK
6
CONTINUOUS
10
115.276
20
-149.566
11
115.419
21
-149.424
0
LINE
8
BLACK
6
CONTINUOUS
10
116.991
20
-151.138
11
116.705
21
-150.995
0
LINE
8
BLACK
6
CONTINUOUS
10
116.705
20
-150.995
11
116.562
21
-150.852
0
LINE
8
BLACK
6
CONTINUOUS
10
116.562
20
-150.852
11
116.419
21
-150.566
0
LINE
8
BLACK
6
CONTINUOUS
10
116.419
20
-150.566
11
116.419
21
-150.424
0
LINE
8
BLACK
6
CONTINUOUS
10
116.419
20
-150.424
11
116.562
21
-150.138
0
LINE
8
BLACK
6
CONTINUOUS
10
116.562
20
-150.138
11
116.705
21
-149.995
0
LINE
8
BLACK
6
CONTINUOUS
10
116.705
20
-149.995
11
116.991
21
-149.852
0
LINE
8
BLACK
6
CONTINUOUS
10
116.991
20
-149.852
11
117.562
21
-149.852
0
LINE
8
BLACK
6
CONTINUOUS
10
117.562
20
-149.852
11
117.848
21
-149.995
0
LINE
8
BLACK
6
CONTINUOUS
10
117.848
20
-149.995
11
117.991
21
-150.138
0
LINE
8
BLACK
6
CONTINUOUS
10
117.991
20
-150.138
11
118.134
21
-150.424
0
LINE
8
BLACK
6
CONTINUOUS
10
118.134
20
-150.424
11
118.134
21
-150.566
0
LINE
8
BLACK
6
CONTINUOUS
10
118.134
20
-150.566
11
117.991
21
-150.852
0
LINE
8
BLACK
6
CONTINUOUS
10
117.991
20
-150.852
11
117.848
21
-150.995
0
LINE
8
BLACK
6
CONTINUOUS
10
117.848
20
-150.995
11
117.562
21
-151.138
0
LINE
8
BLACK
6
CONTINUOUS
10
117.562
20
-151.138
11
116.991
21
-151.138
0
LINE
8
BLACK
6
CONTINUOUS
10
116.991
20
-151.138
11
116.705
21
-151.281
0
LINE
8
BLACK
6
CONTINUOUS
10
116.705
20
-151.281
11
116.562
21
-151.424
0
LINE
8
BLACK
6
CONTINUOUS
10
116.562
20
-151.424
11
116.419
21
-151.709
0
LINE
8
BLACK
6
CONTINUOUS
10
116.419
20
-151.709
11
116.419
21
-152.281
0
LINE
8
BLACK
6
CONTINUOUS
10
116.419
20
-152.281
11
116.562
21
-152.566
0
LINE
8
BLACK
6
CONTINUOUS
10
116.562
20
-152.566
11
116.705
21
-152.709
0
LINE
8
BLACK
6
CONTINUOUS
10
116.705
20
-152.709
11
116.991
21
-152.852
0
LINE
8
BLACK
6
CONTINUOUS
10
116.991
20
-152.852
11
117.562
21
-152.852
0
LINE
8
BLACK
6
CONTINUOUS
10
117.562
20
-152.852
11
117.848
21
-152.709
0
LINE
8
BLACK
6
CONTINUOUS
10
117.848
20
-152.709
11
117.991
21
-152.566
0
LINE
8
BLACK
6
CONTINUOUS
10
117.991
20
-152.566
11
118.134
21
-152.281
0
LINE
8
BLACK
6
CONTINUOUS
10
118.134
20
-152.281
11
118.134
21
-151.709
0
LINE
8
BLACK
6
CONTINUOUS
10
118.134
20
-151.709
11
117.991
21
-151.424
0
LINE
8
BLACK
6
CONTINUOUS
10
117.991
20
-151.424
11
117.848
21
-151.281
0
LINE
8
BLACK
6
CONTINUOUS
10
117.848
20
-151.281
11
117.562
21
-151.138
0
LINE
8
BLACK
6
CONTINUOUS
10
121.705
20
-152.852
11
121.705
21
-149.852
0
LINE
8
BLACK
6
CONTINUOUS
10
122.991
20
-152.852
11
122.991
21
-151.281
0
LINE
8
BLACK
6
CONTINUOUS
10
122.991
20
-151.281
11
122.848
21
-150.995
0
LINE
8
BLACK
6
CONTINUOUS
10
122.848
20
-150.995
11
122.562
21
-150.852
0
LINE
8
BLACK
6
CONTINUOUS
10
122.562
20
-150.852
11
122.134
21
-150.852
0
LINE
8
BLACK
6
CONTINUOUS
10
122.134
20
-150.852
11
121.848
21
-150.995
0
LINE
8
BLACK
6
CONTINUOUS
10
121.848
20
-150.995
11
121.705
21
-151.138
0
LINE
8
BLACK
6
CONTINUOUS
10
124.848
20
-152.852
11
124.562
21
-152.709
0
LINE
8
BLACK
6
CONTINUOUS
10
124.562
20
-152.709
11
124.419
21
-152.566
0
LINE
8
BLACK
6
CONTINUOUS
10
124.419
20
-152.566
11
124.276
21
-152.281
0
LINE
8
BLACK
6
CONTINUOUS
10
124.276
20
-152.281
11
124.276
21
-151.424
0
LINE
8
BLACK
6
CONTINUOUS
10
124.276
20
-151.424
11
124.419
21
-151.138
0
LINE
8
BLACK
6
CONTINUOUS
10
124.419
20
-151.138
11
124.562
21
-150.995
0
LINE
8
BLACK
6
CONTINUOUS
10
124.562
20
-150.995
11
124.848
21
-150.852
0
LINE
8
BLACK
6
CONTINUOUS
10
124.848
20
-150.852
11
125.276
21
-150.852
0
LINE
8
BLACK
6
CONTINUOUS
10
125.276
20
-150.852
11
125.562
21
-150.995
0
LINE
8
BLACK
6
CONTINUOUS
10
125.562
20
-150.995
11
125.705
21
-151.138
0
LINE
8
BLACK
6
CONTINUOUS
10
125.705
20
-151.138
11
125.848
21
-151.424
0
LINE
8
BLACK
6
CONTINUOUS
10
125.848
20
-151.424
11
125.848
21
-152.281
0
LINE
8
BLACK
6
CONTINUOUS
10
125.848
20
-152.281
11
125.705
21
-152.566
0
LINE
8
BLACK
6
CONTINUOUS
10
125.705
20
-152.566
11
125.562
21
-152.709
0
LINE
8
BLACK
6
CONTINUOUS
10
125.562
20
-152.709
11
125.276
21
-152.852
0
LINE
8
BLACK
6
CONTINUOUS
10
125.276
20
-152.852
11
124.848
21
-152.852
0
LINE
8
BLACK
6
CONTINUOUS
10
127.562
20
-152.852
11
127.276
21
-152.709
0
LINE
8
BLACK
6
CONTINUOUS
10
127.276
20
-152.709
11
127.134
21
-152.424
0
LINE
8
BLACK
6
CONTINUOUS
10
127.134
20
-152.424
11
127.134
21
-149.852
0
LINE
8
BLACK
6
CONTINUOUS
10
129.848
20
-152.709
11
129.562
21
-152.852
0
LINE
8
BLACK
6
CONTINUOUS
10
129.562
20
-152.852
11
128.991
21
-152.852
0
LINE
8
BLACK
6
CONTINUOUS
10
128.991
20
-152.852
11
128.705
21
-152.709
0
LINE
8
BLACK
6
CONTINUOUS
10
128.705
20
-152.709
11
128.562
21
-152.424
0
LINE
8
BLACK
6
CONTINUOUS
10
128.562
20
-152.424
11
128.562
21
-151.281
0
LINE
8
BLACK
6
CONTINUOUS
10
128.562
20
-151.281
11
128.705
21
-150.995
0
LINE
8
BLACK
6
CONTINUOUS
10
128.705
20
-150.995
11
128.991
21
-150.852
0
LINE
8
BLACK
6
CONTINUOUS
10
128.991
20
-150.852
11
129.562
21
-150.852
0
LINE
8
BLACK
6
CONTINUOUS
10
129.562
20
-150.852
11
129.848
21
-150.995
0
LINE
8
BLACK
6
CONTINUOUS
10
129.848
20
-150.995
11
129.991
21
-151.281
0
LINE
8
BLACK
6
CONTINUOUS
10
129.991
20
-151.281
11
129.991
21
-151.566
0
LINE
8
BLACK
6
CONTINUOUS
10
129.991
20
-151.566
11
128.562
21
-151.852
0
LINE
8
BLACK
6
CONTINUOUS
10
131.134
20
-152.709
11
131.419
21
-152.852
0
LINE
8
BLACK
6
CONTINUOUS
10
131.419
20
-152.852
11
131.991
21
-152.852
0
LINE
8
BLACK
6
CONTINUOUS
10
131.991
20
-152.852
11
132.276
21
-152.709
0
LINE
8
BLACK
6
CONTINUOUS
10
132.276
20
-152.709
11
132.419
21
-152.424
0
LINE
8
BLACK
6
CONTINUOUS
10
132.419
20
-152.424
11
132.419
21
-152.281
0
LINE
8
BLACK
6
CONTINUOUS
10
132.419
20
-152.281
11
132.276
21
-151.995
0
LINE
8
BLACK
6
CONTINUOUS
10
132.276
20
-151.995
11
131.991
21
-151.852
0
LINE
8
BLACK
6
CONTINUOUS
10
131.991
20
-151.852
11
131.562
21
-151.852
0
LINE
8
BLACK
6
CONTINUOUS
10
131.562
20
-151.852
11
131.276
21
-151.709
0
LINE
8
BLACK
6
CONTINUOUS
10
131.276
20
-151.709
11
131.134
21
-151.424
0
LINE
8
BLACK
6
CONTINUOUS
10
131.134
20
-151.424
11
131.134
21
-151.281
0
LINE
8
BLACK
6
CONTINUOUS
10
131.134
20
-151.281
11
131.276
21
-150.995
0
LINE
8
BLACK
6
CONTINUOUS
10
131.276
20
-150.995
11
131.562
21
-150.852
0
LINE
8
BLACK
6
CONTINUOUS
10
131.562
20
-150.852
11
131.991
21
-150.852
0
LINE
8
BLACK
6
CONTINUOUS
10
131.991
20
-150.852
11
132.276
21
-150.995
0
LINE
8
BLACK
6
CONTINUOUS
10
133.419
20
-153.995
11
133.562
21
-153.852
0
LINE
8
BLACK
6
CONTINUOUS
10
133.562
20
-153.852
11
133.848
21
-153.424
0
LINE
8
BLACK
6
CONTINUOUS
10
133.848
20
-153.424
11
133.991
21
-153.138
0
LINE
8
BLACK
6
CONTINUOUS
10
133.991
20
-153.138
11
134.134
21
-152.709
0
LINE
8
BLACK
6
CONTINUOUS
10
134.134
20
-152.709
11
134.276
21
-151.995
0
LINE
8
BLACK
6
CONTINUOUS
10
134.276
20
-151.995
11
134.276
21
-151.424
0
LINE
8
BLACK
6
CONTINUOUS
10
134.276
20
-151.424
11
134.134
21
-150.709
0
LINE
8
BLACK
6
CONTINUOUS
10
134.134
20
-150.709
11
133.991
21
-150.281
0
LINE
8
BLACK
6
CONTINUOUS
10
133.991
20
-150.281
11
133.848
21
-149.995
0
LINE
8
BLACK
6
CONTINUOUS
10
133.848
20
-149.995
11
133.562
21
-149.566
0
LINE
8
BLACK
6
CONTINUOUS
10
133.562
20
-149.566
11
133.419
21
-149.424
0
LINE
8
BLACK
6
CONTINUOUS
10
138.848
20
-153.995
11
138.705
21
-153.852
0
LINE
8
BLACK
6
CONTINUOUS
10
138.705
20
-153.852
11
138.419
21
-153.424
0
LINE
8
BLACK
6
CONTINUOUS
10
138.419
20
-153.424
11
138.276
21
-153.138
0
LINE
8
BLACK
6
CONTINUOUS
10
138.276
20
-153.138
11
138.134
21
-152.709
0
LINE
8
BLACK
6
CONTINUOUS
10
138.134
20
-152.709
11
137.991
21
-151.995
0
LINE
8
BLACK
6
CONTINUOUS
10
137.991
20
-151.995
11
137.991
21
-151.424
0
LINE
8
BLACK
6
CONTINUOUS
10
137.991
20
-151.424
11
138.134
21
-150.709
0
LINE
8
BLACK
6
CONTINUOUS
10
138.134
20
-150.709
11
138.276
21
-150.281
0
LINE
8
BLACK
6
CONTINUOUS
10
138.276
20
-150.281
11
138.419
21
-149.995
0
LINE
8
BLACK
6
CONTINUOUS
10
138.419
20
-149.995
11
138.705
21
-149.566
0
LINE
8
BLACK
6
CONTINUOUS
10
138.705
20
-149.566
11
138.848
21
-149.424
0
LINE
8
BLACK
6
CONTINUOUS
10
139.991
20
-150.852
11
139.991
21
-152.852
0
LINE
8
BLACK
6
CONTINUOUS
10
139.991
20
-151.138
11
140.134
21
-150.995
0
LINE
8
BLACK
6
CONTINUOUS
10
140.134
20
-150.995
11
140.419
21
-150.852
0
LINE
8
BLACK
6
CONTINUOUS
10
140.419
20
-150.852
11
140.848
21
-150.852
0
LINE
8
BLACK
6
CONTINUOUS
10
140.848
20
-150.852
11
141.134
21
-150.995
0
LINE
8
BLACK
6
CONTINUOUS
10
141.134
20
-150.995
11
141.276
21
-151.281
0
LINE
8
BLACK
6
CONTINUOUS
10
141.276
20
-151.281
11
141.276
21
-152.852
0
LINE
8
BLACK
6
CONTINUOUS
10
143.134
20
-152.852
11
142.848
21
-152.709
0
LINE
8
BLACK
6
CONTINUOUS
10
142.848
20
-152.709
11
142.705
21
-152.566
0
LINE
8
BLACK
6
CONTINUOUS
10
142.705
20
-152.566
11
142.562
21
-152.281
0
LINE
8
BLACK
6
CONTINUOUS
10
142.562
20
-152.281
11
142.562
21
-151.424
0
LINE
8
BLACK
6
CONTINUOUS
10
142.562
20
-151.424
11
142.705
21
-151.138
0
LINE
8
BLACK
6
CONTINUOUS
10
142.705
20
-151.138
11
142.848
21
-150.995
0
LINE
8
BLACK
6
CONTINUOUS
10
142.848
20
-150.995
11
143.134
21
-150.852
0
LINE
8
BLACK
6
CONTINUOUS
10
143.134
20
-150.852
11
143.562
21
-150.852
0
LINE
8
BLACK
6
CONTINUOUS
10
143.562
20
-150.852
11
143.848
21
-150.995
0
LINE
8
BLACK
6
CONTINUOUS
10
143.848
20
-150.995
11
143.991
21
-151.138
0
LINE
8
BLACK
6
CONTINUOUS
10
143.991
20
-151.138
11
144.134
21
-151.424
0
LINE
8
BLACK
6
CONTINUOUS
10
144.134
20
-151.424
11
144.134
21
-152.281
0
LINE
8
BLACK
6
CONTINUOUS
10
144.134
20
-152.281
11
143.991
21
-152.566
0
LINE
8
BLACK
6
CONTINUOUS
10
143.991
20
-152.566
11
143.848
21
-152.709
0
LINE
8
BLACK
6
CONTINUOUS
10
143.848
20
-152.709
11
143.562
21
-152.852
0
LINE
8
BLACK
6
CONTINUOUS
10
143.562
20
-152.852
11
143.134
21
-152.852
0
LINE
8
BLACK
6
CONTINUOUS
10
144.991
20
-150.852
11
146.134
21
-150.852
0
LINE
8
BLACK
6
CONTINUOUS
10
145.419
20
-149.852
11
145.419
21
-152.424
0
LINE
8
BLACK
6
CONTINUOUS
10
145.419
20
-152.424
11
145.562
21
-152.709
0
LINE
8
BLACK
6
CONTINUOUS
10
145.562
20
-152.709
11
145.848
21
-152.852
0
LINE
8
BLACK
6
CONTINUOUS
10
145.848
20
-152.852
11
146.134
21
-152.852
0
LINE
8
BLACK
6
CONTINUOUS
10
149.419
20
-150.852
11
149.419
21
-153.852
0
LINE
8
BLACK
6
CONTINUOUS
10
149.419
20
-150.995
11
149.705
21
-150.852
0
LINE
8
BLACK
6
CONTINUOUS
10
149.705
20
-150.852
11
150.276
21
-150.852
0
LINE
8
BLACK
6
CONTINUOUS
10
150.276
20
-150.852
11
150.562
21
-150.995
0
LINE
8
BLACK
6
CONTINUOUS
10
150.562
20
-150.995
11
150.705
21
-151.138
0
LINE
8
BLACK
6
CONTINUOUS
10
150.705
20
-151.138
11
150.848
21
-151.424
0
LINE
8
BLACK
6
CONTINUOUS
10
150.848
20
-151.424
11
150.848
21
-152.281
0
LINE
8
BLACK
6
CONTINUOUS
10
150.848
20
-152.281
11
150.705
21
-152.566
0
LINE
8
BLACK
6
CONTINUOUS
10
150.705
20
-152.566
11
150.562
21
-152.709
0
LINE
8
BLACK
6
CONTINUOUS
10
150.562
20
-152.709
11
150.276
21
-152.852
0
LINE
8
BLACK
6
CONTINUOUS
10
150.276
20
-152.852
11
149.705
21
-152.852
0
LINE
8
BLACK
6
CONTINUOUS
10
149.705
20
-152.852
11
149.419
21
-152.709
0
LINE
8
BLACK
6
CONTINUOUS
10
152.562
20
-152.852
11
152.276
21
-152.709
0
LINE
8
BLACK
6
CONTINUOUS
10
152.276
20
-152.709
11
152.134
21
-152.424
0
LINE
8
BLACK
6
CONTINUOUS
10
152.134
20
-152.424
11
152.134
21
-149.852
0
LINE
8
BLACK
6
CONTINUOUS
10
154.991
20
-152.852
11
154.991
21
-151.281
0
LINE
8
BLACK
6
CONTINUOUS
10
154.991
20
-151.281
11
154.848
21
-150.995
0
LINE
8
BLACK
6
CONTINUOUS
10
154.848
20
-150.995
11
154.562
21
-150.852
0
LINE
8
BLACK
6
CONTINUOUS
10
154.562
20
-150.852
11
153.991
21
-150.852
0
LINE
8
BLACK
6
CONTINUOUS
10
153.991
20
-150.852
11
153.705
21
-150.995
0
LINE
8
BLACK
6
CONTINUOUS
10
154.991
20
-152.709
11
154.705
21
-152.852
0
LINE
8
BLACK
6
CONTINUOUS
10
154.705
20
-152.852
11
153.991
21
-152.852
0
LINE
8
BLACK
6
CONTINUOUS
10
153.991
20
-152.852
11
153.705
21
-152.709
0
LINE
8
BLACK
6
CONTINUOUS
10
153.705
20
-152.709
11
153.562
21
-152.424
0
LINE
8
BLACK
6
CONTINUOUS
10
153.562
20
-152.424
11
153.562
21
-152.138
0
LINE
8
BLACK
6
CONTINUOUS
10
153.562
20
-152.138
11
153.705
21
-151.852
0
LINE
8
BLACK
6
CONTINUOUS
10
153.705
20
-151.852
11
153.991
21
-151.709
0
LINE
8
BLACK
6
CONTINUOUS
10
153.991
20
-151.709
11
154.705
21
-151.709
0
LINE
8
BLACK
6
CONTINUOUS
10
154.705
20
-151.709
11
154.991
21
-151.566
0
LINE
8
BLACK
6
CONTINUOUS
10
155.991
20
-150.852
11
157.134
21
-150.852
0
LINE
8
BLACK
6
CONTINUOUS
10
156.419
20
-149.852
11
156.419
21
-152.424
0
LINE
8
BLACK
6
CONTINUOUS
10
156.419
20
-152.424
11
156.562
21
-152.709
0
LINE
8
BLACK
6
CONTINUOUS
10
156.562
20
-152.709
11
156.848
21
-152.852
0
LINE
8
BLACK
6
CONTINUOUS
10
156.848
20
-152.852
11
157.134
21
-152.852
0
LINE
8
BLACK
6
CONTINUOUS
10
159.276
20
-152.709
11
158.991
21
-152.852
0
LINE
8
BLACK
6
CONTINUOUS
10
158.991
20
-152.852
11
158.419
21
-152.852
0
LINE
8
BLACK
6
CONTINUOUS
10
158.419
20
-152.852
11
158.134
21
-152.709
0
LINE
8
BLACK
6
CONTINUOUS
10
158.134
20
-152.709
11
157.991
21
-152.424
0
LINE
8
BLACK
6
CONTINUOUS
10
157.991
20
-152.424
11
157.991
21
-151.281
0
LINE
8
BLACK
6
CONTINUOUS
10
157.991
20
-151.281
11
158.134
21
-150.995
0
LINE
8
BLACK
6
CONTINUOUS
10
158.134
20
-150.995
11
158.419
21
-150.852
0
LINE
8
BLACK
6
CONTINUOUS
10
158.419
20
-150.852
11
158.991
21
-150.852
0
LINE
8
BLACK
6
CONTINUOUS
10
158.991
20
-150.852
11
159.276
21
-150.995
0
LINE
8
BLACK
6
CONTINUOUS
10
159.276
20
-150.995
11
159.419
21
-151.281
0
LINE
8
BLACK
6
CONTINUOUS
10
159.419
20
-151.281
11
159.419
21
-151.566
0
LINE
8
BLACK
6
CONTINUOUS
10
159.419
20
-151.566
11
157.991
21
-151.852
0
LINE
8
BLACK
6
CONTINUOUS
10
161.991
20
-152.852
11
161.991
21
-149.852
0
LINE
8
BLACK
6
CONTINUOUS
10
161.991
20
-152.709
11
161.705
21
-152.852
0
LINE
8
BLACK
6
CONTINUOUS
10
161.705
20
-152.852
11
161.134
21
-152.852
0
LINE
8
BLACK
6
CONTINUOUS
10
161.134
20
-152.852
11
160.848
21
-152.709
0
LINE
8
BLACK
6
CONTINUOUS
10
160.848
20
-152.709
11
160.705
21
-152.566
0
LINE
8
BLACK
6
CONTINUOUS
10
160.705
20
-152.566
11
160.562
21
-152.281
0
LINE
8
BLACK
6
CONTINUOUS
10
160.562
20
-152.281
11
160.562
21
-151.424
0
LINE
8
BLACK
6
CONTINUOUS
10
160.562
20
-151.424
11
160.705
21
-151.138
0
LINE
8
BLACK
6
CONTINUOUS
10
160.705
20
-151.138
11
160.848
21
-150.995
0
LINE
8
BLACK
6
CONTINUOUS
10
160.848
20
-150.995
11
161.134
21
-150.852
0
LINE
8
BLACK
6
CONTINUOUS
10
161.134
20
-150.852
11
161.705
21
-150.852
0
LINE
8
BLACK
6
CONTINUOUS
10
161.705
20
-150.852
11
161.991
21
-150.995
0
LINE
8
BLACK
6
CONTINUOUS
10
163.134
20
-153.995
11
163.276
21
-153.852
0
LINE
8
BLACK
6
CONTINUOUS
10
163.276
20
-153.852
11
163.562
21
-153.424
0
LINE
8
BLACK
6
CONTINUOUS
10
163.562
20
-153.424
11
163.705
21
-153.138
0
LINE
8
BLACK
6
CONTINUOUS
10
163.705
20
-153.138
11
163.848
21
-152.709
0
LINE
8
BLACK
6
CONTINUOUS
10
163.848
20
-152.709
11
163.991
21
-151.995
0
LINE
8
BLACK
6
CONTINUOUS
10
163.991
20
-151.995
11
163.991
21
-151.424
0
LINE
8
BLACK
6
CONTINUOUS
10
163.991
20
-151.424
11
163.848
21
-150.709
0
LINE
8
BLACK
6
CONTINUOUS
10
163.848
20
-150.709
11
163.705
21
-150.281
0
LINE
8
BLACK
6
CONTINUOUS
10
163.705
20
-150.281
11
163.562
21
-149.995
0
LINE
8
BLACK
6
CONTINUOUS
10
163.562
20
-149.995
11
163.276
21
-149.566
0
LINE
8
BLACK
6
CONTINUOUS
10
163.276
20
-149.566
11
163.134
21
-149.424
  0
ENDSEC
  0
EOF
